System Of A Down - Add tab

Song: A.D.D
Artist: System of a Down
Guitarist: Daron Malakian

1 Guitar
Tuning: Drop C (C,G,C,F,A,D)

The BPM is actually in between 233 and 234.
I would practice on a 234 but there is no consistant tempo.

                       |--3--|   
  Q   E  E  E  Q   E   E  E  E  E  Q   Q   E
D-10--10-10-10-10--10-|10h11p10-10-10--10--10-|
A---------------------|-----------------------|
F---------------------|-----------------------|
C---------------------|-----------------------|
G---------------------|-----------------------|
C---------------------|-----------------------|

                       |--3--|   
  Q   E  E  E  Q   E   E  E  E  E  Q   Q   E
D-10--10-10-10-10--10-|10h11p10-10-10--10--10-|
A---------------------|-----------------------|
F---------------------|-----------------------|
C---------------------|-----------------------|
G---------------------|-----------------------|
C---------------------|-----------------------|

  |--3--|                 |--3--|   
  E  E  E  E  Q   E       E  E  E  E  Q   Q   E
D-10h11p10-10-10--10--10-|10h11p10-10-10--10--10-|
A------------------------|-----------------------|
F------------------------|-----------------------|
C------------------------|-----------------------|
G------------------------|-----------------------|
C------------------------|-----------------------|

  |--3--|                  |---3---| 
  E  E  E  E  Q   Q   E    E+  e 
D-10h11p10-10-10--10--10-|(10h)11-----------------|
A------------------------|------------------------|
F------------------------|------------------------|
C------------------------|------------------------|
G------------------------|------------------------|
C------------------------|------------------------|


  Q   E  E  E  E  E  E  Q     E  E  E  E  E  E  Q
D--------------------------|-----------------------|
A-15--15-15-15-15/16\15-15-|--15-15-15-15/16\15-15-|
F-14--14-14-14-14/15\14-14-|--14-14-14-14/15\14-14-|
C-12--12-12-12-12/13\12-12-|--12-12-12-12/13\12-12-|
G-0---0--0--0--0~~~~~~~-0--|--0--0--0--0~~~~~~~-0--|
C-0---0--0--0--0~~~~~~~-0--|--0--0--0--0~~~~~~~-0--|


  Q   E  E  E  E  E  E  Q     E  E  E  E  E  E  Q
D---------------------------|----------------------|
A-15--15-15-15-15/16\15-15-|--15-15-15-13-15-16-15-|
F-14--14-14-14-14/15\14-14-|--14-14-14-14-14-15-14-|
C-12--12-12-12-12/13\12-12-|--12-12-12-12-12-13-12-|
G-0---0--0--0--0~~~~~~~-0--|--0--0--0--0--0--0--0--|
C-0---0--0--0--0~~~~~~~-0--|--0--0--0--0--0--0--0--|


   E  E  E  E  E  E  Q     E  E  E  E  E  E  Q
D-----------------------|-----------------------|
A--15-15-15-15/16\15-15-|--15-15-15-15/16\15-15-|
F--14-14-14-14/15\14-14-|--14-14-14-14/15\14-14-|
C--12-12-12-12/13\12-12-|--12-12-12-12/13\12-12-|
G--0--0--0--0~~~~~~~-0--|--0--0--0--0~~~~~~~-0--|
C--0--0--0--0~~~~~~~-0--|--0--0--0--0~~~~~~~-0--|


  Q   E  E  E  E  E  E  Q     E  E  E  E  E  E  Q
D--------------------------|-----------------------|
A-15--15-15-15-15/16\15-15-|--15-15-15-13-15-16-15-|
F-14--14-14-14-14/15\14-14-|--14-14-14-14-14-15-14-|
C-12--12-12-12-12/13\12-12-|--12-12-12-12-12-13-12-|
G-0---0--0--0--0~~~~~~~-0--|--0--0--0--0--0--0--0--|
C-0---0--0--0--0~~~~~~~-0--|--0--0--0--0--0--0--0--|


   E  E  E  E  E  E  E     E  E  E  E  E  E  E   
D-----------------------|-----------------------|
A--15-15-15-15-15-15-15-|--15-15-15-15-15-15-15-|
F--14-14-14-14-14-14-14-|--14-14-14-14-14-14-14-|
C--12-12-12-12-12-12-12-|--12-12-12-12-12-12-12-|
G--0--0--0--0--0--0--0--|--0--0--0--0--0--0--0--|
C--0--0--0--0--0--0--0--|--0--0--0--0--0--0--0--|


   E  E  E  E  E  E  E     E  E  E  E  E  E  E   
D-----------------------|-----------------------|
A--15-15-15-15-15-15-15-|--15-15-15-13-15-16-15-|
F--14-14-14-14-14-14-14-|--14-14-14-14-14-15-14-|
C--12-12-12-12-12-12-12-|--12-12-12-12-12-13-12-|
G--0--0--0--0--0--0--0--|--0--0--0--0--0--0--0--|
C--0--0--0--0--0--0--0--|--0--0--0--0--0--0--0--|


   E  E  E  E  E  E  E     E  E  E  E  E  E  E   
D-----------------------|-----------------------|
A--15-15-15-15-15-15-15-|--15-15-15-15-15-15-15-|
F--14-14-14-14-14-14-14-|--14-14-14-14-14-14-14-|
C--12-12-12-12-12-12-12-|--12-12-12-12-12-12-12-|
G--0--0--0--0--0--0--0--|--0--0--0--0--0--0--0--|
C--0--0--0--0--0--0--0--|--0--0--0--0--0--0--0--|


   E  E  E  E  E  E  E     E  E  E  E  E  E   
D-----------------------|--------------------|
A--15-15-15-15-15-15-15-|--15-15-15-13-15-16-|
F--14-14-14-14-14-14-14-|--14-14-14-14-14-15-|
C--12-12-12-12-12-12-12-|--12-12-12-12-12-13-|
G--0--0--0--0--0--0--0--|--0--0--0--0--0--0--|
C--0--0--0--0--0--0--0--|--0--0--0--0--0--0--|


  Q.    Q   E E E Q.   E Q   E E E Q.   E E   E E E Q.   E Q   E E E Q. 
D------------------|----------------|----------------|-----------------|
A------------------|----------------|----------------|-----------------|
F------------------|----------------|----------------|-----------------|
C-3-----3---3-3-3-8|---8-8---8-8-8-1|---1-1---1-1-1-5|---5-5---5-5-5-11|
G-3-----3---3-3-3-8|---8-8---8-8-8-1|---1-1---1-1-1-5|---5-5---5-5-5-11|
C-3-----3---3-3-3-8|---8-8---8-8-8-1|---1-1---1-1-1-5|---5-5---5-5-5-11|


    E  Q    E  E  E  Q.   E Q   E E E E
D---------------------|-----------------|
A---------------------|-----------------|
F---------------------|-----------------|
C---11-11---11-11-11-3|---3-3---3-3-3-3-|
G---11-11---11-11-11-3|---3-3---3-3-3-3-|
C---11-11---11-11-11-3|---3-3---3-3-3-3-|

  
  E E E E E E E E  E E E E E E E E  E E E E E E E E  E E E E E E E E 
D-----------------|----------------|----------------|----------------|
A-----------------|----------------|----------------|----------------|
F-----------------|----------------|----------------|----------------|
C-0-0-0-0-0-0-0-0-|0-0-0-0-0-0-0-0-|0-0-0-0-0-0-0-0-|0-0-0-0-0-0-0-0-|
G-0-0-0-0-0-0-0-0-|0-0-0-0-0-0-0-0-|0-0-0-0-0-0-0-0-|0-0-0-0-0-0-0-0-|
C-0-0-0-0-0-0-0-0-|0-0-0-0-0-0-0-0-|0-0-0-0-0-0-0-0-|0-0-0-0-0-0-0-0-|
  * * * * * * * *  * * * * * * * *  * * * * * * * *  * * * * * * * *

  E E E E E E E E  E E E E E E E E  E E E E E E E E  E E E E E
D-----------------|----------------|----------------|----------------|
A-----------------|----------------|----------------|----------------|
F-----------------|----------------|----------------|----------------|
C-0-0-0-0-0-0-0-0-|0-0-0-0-0-0-0-0-|0-0-0-0-0-0-0-0-|0-0-0-0-0-------|
G-0-0-0-0-0-0-0-0-|0-0-0-0-0-0-0-0-|0-0-0-0-0-0-0-0-|0-0-0-0-0-------|
C-0-0-0-0-0-0-0-0-|0-0-0-0-0-0-0-0-|0-0-0-0-0-0-0-0-|0-0-0-0-0-------|
  * * * * * * * *  * * * * * * * *  * * * * * * * *  * * * * *

We faught your wars...

  E  E  E  E  E  E  E  E  E  E  E  E  E  E  E  E  E  E  E  E  E  E  E  E  
D------------------------|-----------------------|-----------------------|
A-------15-15-15-15-15-15|15-15-15-15-15-15-15-15|15-15-13-13-13-13-13-13|
F-------10-10-10-10-10-10|10-10-10-10-10-10-10-10|10-10-9--9--9--9--9--9-|
C-0--0--0--0--0--0--0--0-|0--0--0--0--0--0--0--0-|0--0--0--0--0--0--0--0-|
G-0--0--0--0--0--0--0--0-|0--0--0--0--0--0--0--0-|0--0--0--0--0--0--0--0-|
C-0--0--0--0--0--0--0--0-|0--0--0--0--0--0--0--0-|0--0--0--0--0--0--0--0-|

                                
  E  E  E  E  E  E  E  E  E  E  E  E  E  E  E  E  E  E  E  E  E  E  E  E
D------------------------|-----------------------|-----------------------|
A-13-13-13-13-13-13-13-13|13-13-17-17-17-17-17-17|17-17-17-17-17-17-17-17|
F-9--9--9--9--9--9--9--9-|9--9--12-12-12-12-12-12|12-12-12-12-12-12-12-12|
C-0--0--0--0--0--0--0--0-|0--0--0--0--0--0--0--0-|0--0--0--0--0--0--0--0-|
G-0--0--0--0--0--0--0--0-|0--0--0--0--0--0--0--0-|0--0--0--0--0--0--0--0-|
C-0--0--0--0--0--0--0--0-|0--0--0--0--0--0--0--0-|0--0--0--0--0--0--0--0-|

                                                        
  E  E  E  E  E  E  E  E  E  E  E  E  E  E  E  E  E  E  E  E  E  E  E  E  
D------------------------|-----------------------|-----------------------|
A-17-17-15-15-15-15-15-15|15-15-15-15-15-15-15-15|15-15-18-18-18-18-18-18|
F-12-12-10-10-10-10-10-10|10-10-10-10-10-10-10-10|10-10-14-14-14-14-14-14|
C-0--0--0--0--0--0--0--0-|0--0--0--0--0--0--0--0-|0--0--0--0--0--0--0--0-|
G-0--0--0--0--0--0--0--0-|0--0--0--0--0--0--0--0-|0--0--0--0--0--0--0--0-|
C-0--0--0--0--0--0--0--0-|0--0--0--0--0--0--0--0-|0--0--0--0--0--0--0--0-|


  E  E  E  E  E  E  E  E  E  E  E  E  E  E  E  E  E  E  E  E  E  E  E  E
D------------------------|-----------------------|-----------------------|
A-18-18-18-18-18-18-18-18|18-18-17-17-17-17-17-17|17-17-17-17-17-17-17-17|
F-14-14-14-14-14-14-14-14|14-14-12-12-12-12-12-12|12-12-12-12-12-12-12-12|
C-0--0--0--0--0--0--0--0-|0--0--0--0--0--0--0--0-|0--0--0--0--0--0--0--0-|
G-0--0--0--0--0--0--0--0-|0--0--0--0--0--0--0--0-|0--0--0--0--0--0--0--0-|
C-0--0--0--0--0--0--0--0-|0--0--0--0--0--0--0--0-|0--0--0--0--0--0--0--0-|

        
  E  E  E  E  E  E  E  E  E  E  E  E  E  E  E  E  E  E  E  E  E  E  E  E  
D------------------------|-----------------------|-----------------------|
A-17-17-20-20-20-20-20-20|20-20-20-20-20-20-20-20|20-20-18-18-18-18-18-18|
F-12-12-15-15-15-15-15-15|15-15-15-15-15-15-15-15|15-15-14-14-14-14-14-14|
C-0--0--0--0--0--0--0--0-|0--0--0--0--0--0--0--0-|0--0--0--0--0--0--0--0-|
G-0--0--0--0--0--0--0--0-|0--0--0--0--0--0--0--0-|0--0--0--0--0--0--0--0-|
C-0--0--0--0--0--0--0--0-|0--0--0--0--0--0--0--0-|0--0--0--0--0--0--0--0-|


  E  E  E  E  E  E  E
D---------------------|
A-18-18-18-18-18-18-18|
F-14-14-14-14-14-14-14|
C-0--0--0--0--0--0--0-|
G-0--0--0--0--0--0--0-|
C-0--0--0--0--0--0--0-|

Thier aiming the race...
    Q    E  E  E  E  E  E     Q    E  E  E  E  E  E
D-----------------10h11p10|-----------------10h11p10--|
A-------------------------|---------------------------|
F-------------------------|---------------------------|
C---12---12-12-12---------|---12---12-12-12-----------|
G-------------------------|---------------------------|
C-------------------------|---------------------------|


    Q    E  E  E  E  E  E     Q    E  E  E  E  E  E
D-----------------10h11p10|-----------------10h11p10--|
A-------------------------|---------------------------|
F-------------------------|---------------------------|
C---12---12-12-12---------|---12---12-12-12-----------|
G-------------------------|---------------------------|
C-------------------------|---------------------------|


    Q    E  E  E  E  E  E     Q    E  E  E  E  E  E
D-----------------10h11p10|-----------------10h11p10--|
A-------------------------|---------------------------|
F-------------------------|---------------------------|
C---12---12-12-12---------|---12---12-12-12-----------|
G-------------------------|---------------------------|
C-------------------------|---------------------------|


    Q    E  E  E  E  E  E     Q    E  E  E  E  E  E
D---10---10-10-10-10-10-10|---10---10-10-10-10-10-10--|
A-------------------------|---------------------------|
F-------------------------|---------------------------|
C-------------------------|---------------------------|
G-------------------------|---------------------------|
C-------------------------|---------------------------|

We don't give a damn...
  Q.    Q   E E E Q.   E Q   E E E Q.   E E   E E E Q.   E Q   E E E Q. 
D------------------|----------------|----------------|-----------------|
A------------------|----------------|----------------|-----------------|
F------------------|----------------|----------------|-----------------|
C-3-----3---3-3-3-8|---8-8---8-8-8-1|---1-1---1-1-1-5|---5-5---5-5-5-11|
G-3-----3---3-3-3-8|---8-8---8-8-8-1|---1-1---1-1-1-5|---5-5---5-5-5-11|
C-3-----3---3-3-3-8|---8-8---8-8-8-1|---1-1---1-1-1-5|---5-5---5-5-5-11|


    E  Q    E  E  E  Q.   E Q   E E E  Q.
D---------------------|-------------------|
A---------------------|-------------------|
F---------------------|-------------------|
C---11-11---11-11-11-3|---3-3---3-3-3-----|
G---11-11---11-11-11-3|---3-3---3-3-3-----|
C---11-11---11-11-11-3|---3-3---3-3-3-*5*-|

Right now...
    Q    E E E  Q.    Q    E E E 
D-----------------|--------------|
A-----------------|--------------|
F-----------------|--------------|
C---0----0-0-0-*5*|---0----0-0-0-|
G---0----0-0-0----|---0----0-0-0-|
C---0----0-0-0----|---0----0-0-0-|

We don't give a f***...
  Q.    Q   E E E Q.   E Q   E E E Q.   E E   E E E Q.   E Q   E E E Q. 
D------------------|----------------|----------------|-----------------|
A------------------|----------------|----------------|-----------------|
F------------------|----------------|----------------|-----------------|
C-3-----3---3-3-3-8|---8-8---8-8-8-1|---1-1---1-1-1-5|---5-5---5-5-5-11|
G-3-----3---3-3-3-8|---8-8---8-8-8-1|---1-1---1-1-1-5|---5-5---5-5-5-11|
C-3-----3---3-3-3-8|---8-8---8-8-8-1|---1-1---1-1-1-5|---5-5---5-5-5-11|


    E  Q    E  E  E  Q.   E Q   E E E E
D---------------------|-----------------|
A---------------------|-----------------|
F---------------------|-----------------|
C---11-11---11-11-11-3|---3-3---3-3-3-3-|
G---11-11---11-11-11-3|---3-3---3-3-3-3-|
C---11-11---11-11-11-3|---3-3---3-3-3-3-|

Right now...
  E E E E E E E E  E E E E E E E E  E E E E E E E E  E E E E E  
D-----------------|----------------|----------------|----------|
A-----------------|----------------|----------------|----------|
F-----------------|----------------|----------------|----------|
C-0-0-0-0-0-0-0-0-|0-0-0-0-0-0-0-0-|0-0-0-0-0-0-0-0-|0-0-0-0-0-|
G-0-0-0-0-0-0-0-0-|0-0-0-0-0-0-0-0-|0-0-0-0-0-0-0-0-|0-0-0-0-0-|
C-0-0-0-0-0-0-0-0-|0-0-0-0-0-0-0-0-|0-0-0-0-0-0-0-0-|0-0-0-0-0-|
  * * * * * * * *  * * * * * * * *  * * * * * * * *  * * * * * 

Their is no flag...
  E  E  E  E  E  E  E  E  E  E  E  E  E  E  E  E  E  E  E  E  E  E  E  E  
D------------------------|-----------------------|-----------------------|
A-------15-15-15-15-15-15|15-15-15-15-15-15-15-15|15-15-13-13-13-13-13-13|
F-------10-10-10-10-10-10|10-10-10-10-10-10-10-10|10-10-9--9--9--9--9--9-|
C-0--0--0--0--0--0--0--0-|0--0--0--0--0--0--0--0-|0--0--0--0--0--0--0--0-|
G-0--0--0--0--0--0--0--0-|0--0--0--0--0--0--0--0-|0--0--0--0--0--0--0--0-|
C-0--0--0--0--0--0--0--0-|0--0--0--0--0--0--0--0-|0--0--0--0--0--0--0--0-|


  E  E  E  E  E  E  E  E  E  E  E  E  E  E  E  E  E  E  E  E  E  E  E  E
D------------------------|-----------------------|-----------------------|
A-13-13-13-13-13-13-13-13|13-13-17-17-17-17-17-17|17-17-17-17-17-17-17-17|
F-9--9--9--9--9--9--9--9-|9--9--12-12-12-12-12-12|12-12-12-12-12-12-12-12|
C-0--0--0--0--0--0--0--0-|0--0--0--0--0--0--0--0-|0--0--0--0--0--0--0--0-|
G-0--0--0--0--0--0--0--0-|0--0--0--0--0--0--0--0-|0--0--0--0--0--0--0--0-|
C-0--0--0--0--0--0--0--0-|0--0--0--0--0--0--0--0-|0--0--0--0--0--0--0--0-|


  E  E  E  E  E  E  E  E  E  E  E  E  E  E  E  E  E  E  E  E  E  E  E  E  
D------------------------|-----------------------|-----------------------|
A-17-17-15-15-15-15-15-15|15-15-15-15-15-15-15-15|15-15-18-18-18-18-18-18|
F-12-12-10-10-10-10-10-10|10-10-10-10-10-10-10-10|10-10-14-14-14-14-14-14|
C-0--0--0--0--0--0--0--0-|0--0--0--0--0--0--0--0-|0--0--0--0--0--0--0--0-|
G-0--0--0--0--0--0--0--0-|0--0--0--0--0--0--0--0-|0--0--0--0--0--0--0--0-|
C-0--0--0--0--0--0--0--0-|0--0--0--0--0--0--0--0-|0--0--0--0--0--0--0--0-|


  E  E  E  E  E  E  E  E  E  E  E  E  E  E  E  E  E  E  E  E  E  E  E  E
D------------------------|-----------------------|-----------------------|
A-18-18-18-18-18-18-18-18|18-18-17-17-17-17-17-17|17-17-17-17-17-17-17-17|
F-14-14-14-14-14-14-14-14|14-14-12-12-12-12-12-12|12-12-12-12-12-12-12-12|
C-0--0--0--0--0--0--0--0-|0--0--0--0--0--0--0--0-|0--0--0--0--0--0--0--0-|
G-0--0--0--0--0--0--0--0-|0--0--0--0--0--0--0--0-|0--0--0--0--0--0--0--0-|
C-0--0--0--0--0--0--0--0-|0--0--0--0--0--0--0--0-|0--0--0--0--0--0--0--0-|


  E  E  E  E  E  E  E  E  E  E  E  E  E  E  E  E  E  E  E  E  E  E  E  E  
D------------------------|-----------------------|-----------------------|
A-17-17-20-20-20-20-20-20|20-20-20-20-20-20-20-20|20-20-18-18-18-18-18-18|
F-12-12-15-15-15-15-15-15|15-15-15-15-15-15-15-15|15-15-14-14-14-14-14-14|
C-0--0--0--0--0--0--0--0-|0--0--0--0--0--0--0--0-|0--0--0--0--0--0--0--0-|
G-0--0--0--0--0--0--0--0-|0--0--0--0--0--0--0--0-|0--0--0--0--0--0--0--0-|
C-0--0--0--0--0--0--0--0-|0--0--0--0--0--0--0--0-|0--0--0--0--0--0--0--0-|


  E  E  E  E  E  E  E
D---------------------|
A-18-18-18-18-18-18-18|
F-14-14-14-14-14-14-14|
C-0--0--0--0--0--0--0-|
G-0--0--0--0--0--0--0-|
C-0--0--0--0--0--0--0-|

Their aiming the race...
    Q    E  E  E  E  E  E     Q    E  E  E  E  E  E
D-----------------10h11p10|-----------------10h11p10--|
A-------------------------|---------------------------|
F-------------------------|---------------------------|
C---12---12-12-12---------|---12---12-12-12-----------|
G-------------------------|---------------------------|
C-------------------------|---------------------------|


    Q    E  E  E  E  E  E     Q    E  E  E  E  E  E
D-----------------10h11p10|-----------------10h11p10--|
A-------------------------|---------------------------|
F-------------------------|---------------------------|
C---12---12-12-12---------|---12---12-12-12-----------|
G-------------------------|---------------------------|
C-------------------------|---------------------------|


    Q    E  E  E  E  E  E     Q    E  E  E  E  E  E
D-----------------10h11p10|-----------------10h11p10--|
A-------------------------|---------------------------|
F-------------------------|---------------------------|
C---12---12-12-12---------|---12---12-12-12-----------|
G-------------------------|---------------------------|
C-------------------------|---------------------------|


    Q    E  E  E  E  E  E     Q    E  E  E  E  E  E
D---10---10-10-10-10-10-10|---10---10-10-10-10-10-10--|
A-------------------------|---------------------------|
F-------------------------|---------------------------|
C-------------------------|---------------------------|
G-------------------------|---------------------------|
C-------------------------|---------------------------|

We don't give a damn...
  Q.    Q   E E E Q.   E Q   E E E Q.   E E   E E E Q.   E Q   E E E Q. 
D------------------|----------------|----------------|-----------------|
A------------------|----------------|----------------|-----------------|
F------------------|----------------|----------------|-----------------|
C-3-----3---3-3-3-8|---8-8---8-8-8-1|---1-1---1-1-1-5|---5-5---5-5-5-11|
G-3-----3---3-3-3-8|---8-8---8-8-8-1|---1-1---1-1-1-5|---5-5---5-5-5-11|
C-3-----3---3-3-3-8|---8-8---8-8-8-1|---1-1---1-1-1-5|---5-5---5-5-5-11|


    E  Q    E  E  E  Q.   E Q   E E E  Q.
D---------------------|-------------------|
A---------------------|-------------------|
F---------------------|-------------------|
C---11-11---11-11-11-3|---3-3---3-3-3-----|
G---11-11---11-11-11-3|---3-3---3-3-3-----|
C---11-11---11-11-11-3|---3-3---3-3-3-*5*-|

Right now...
    Q    E E E  Q.    Q    E E E 
D-----------------|--------------|
A-----------------|--------------|
F-----------------|--------------|
C---0----0-0-0-*5*|---0----0-0-0-|
G---0----0-0-0----|---0----0-0-0-|
C---0----0-0-0----|---0----0-0-0-|

We don't give a f***...
  Q.    Q   E E E Q.   E Q   E E E Q.   E E   E E E Q.   E Q   E E E Q. 
D------------------|----------------|----------------|-----------------|
A------------------|----------------|----------------|-----------------|
F------------------|----------------|----------------|-----------------|
C-3-----3---3-3-3-8|---8-8---8-8-8-1|---1-1---1-1-1-5|---5-5---5-5-5-11|
G-3-----3---3-3-3-8|---8-8---8-8-8-1|---1-1---1-1-1-5|---5-5---5-5-5-11|
C-3-----3---3-3-3-8|---8-8---8-8-8-1|---1-1---1-1-1-5|---5-5---5-5-5-11|


    E  Q    E  E  E  Q.   E Q   E E E E
D---------------------|-----------------|
A---------------------|-----------------|
F---------------------|-----------------|
C---11-11---11-11-11-3|---3-3---3-3-3-3-|
G---11-11---11-11-11-3|---3-3---3-3-3-3-|
C---11-11---11-11-11-3|---3-3---3-3-3-3-|

Right now...
   W    W
D------|-----|
A------|-----|
F------|-----|
C------|-*5*-|
G------|-----|
C-*5*--|-----|


   W    W
D------|-----|
A------|-----|
F------|-----|
C------|-*5*-|
G------|-----|
C-*5*--|-----|


   W    W
D------|-----|
A------|-----|
F------|-----|
C------|-*5*-|
G------|-----|
C-*5*--|-----|

Right now, RIGHT NOW!!!!!
   W    W
D------|-----|
A------|-----|
F------|-----|
C------|-*5*-|
G------|-----|
C-*5*--|-----|

  Q   E  E  E  E  E  E  Q     E  E  E  E  E  E  Q
D--------------------------|-----------------------|
A-15--15-15-15-15/16\15-15-|--15-15-15-15/16\15-15-|
F-14--14-14-14-14/15\14-14-|--14-14-14-14/15\14-14-|
C-12--12-12-12-12/13\12-12-|--12-12-12-12/13\12-12-|
G-0---0--0--0--0~~~~~~~-0--|--0--0--0--0~~~~~~~-0--|
C-0---0--0--0--0~~~~~~~-0--|--0--0--0--0~~~~~~~-0--|


  Q   E  E  E  E  E  E  Q     E  E  E  E  E  E  Q
D---------------------------|----------------------|
A-15--15-15-15-15/16\15-15-|--15-15-15-13-15-16-15-|
F-14--14-14-14-14/15\14-14-|--14-14-14-14-14-15-14-|
C-12--12-12-12-12/13\12-12-|--12-12-12-12-12-13-12-|
G-0---0--0--0--0~~~~~~~-0--|--0--0--0--0--0--0--0--|
C-0---0--0--0--0~~~~~~~-0--|--0--0--0--0--0--0--0--|


   E  E  E  E  E  E  Q     E  E  E  E  E  E  Q
D-----------------------|-----------------------|
A--15-15-15-15/16\15-15-|--15-15-15-15/16\15-15-|
F--14-14-14-14/15\14-14-|--14-14-14-14/15\14-14-|
C--12-12-12-12/13\12-12-|--12-12-12-12/13\12-12-|
G--0--0--0--0~~~~~~~-0--|--0--0--0--0~~~~~~~-0--|
C--0--0--0--0~~~~~~~-0--|--0--0--0--0~~~~~~~-0--|


  Q   E  E  E  E  E  E  Q     E  E  E  E  E  E  Q
D--------------------------|-----------------------|
A-15--15-15-15-15/16\15-15-|--15-15-15-13-15-16-15-|
F-14--14-14-14-14/15\14-14-|--14-14-14-14-14-15-14-|
C-12--12-12-12-12/13\12-12-|--12-12-12-12-12-13-12-|
G-0---0--0--0--0~~~~~~~-0--|--0--0--0--0--0--0--0--|
C-0---0--0--0--0~~~~~~~-0--|--0--0--0--0--0--0--0--|


   E  E  E  E  E  E  E     E  E  E  E  E  E  E   
D-----------------------|-----------------------|
A--15-15-15-15-15-15-15-|--15-15-15-15-15-15-15-|
F--14-14-14-14-14-14-14-|--14-14-14-14-14-14-14-|
C--12-12-12-12-12-12-12-|--12-12-12-12-12-12-12-|
G--0--0--0--0--0--0--0--|--0--0--0--0--0--0--0--|
C--0--0--0--0--0--0--0--|--0--0--0--0--0--0--0--|


   E  E  E  E  E  E  E     E  E  E  E  E  E  E   
D-----------------------|-----------------------|
A--15-15-15-15-15-15-15-|--15-15-15-13-15-16-15-|
F--14-14-14-14-14-14-14-|--14-14-14-14-14-15-14-|
C--12-12-12-12-12-12-12-|--12-12-12-12-12-13-12-|
G--0--0--0--0--0--0--0--|--0--0--0--0--0--0--0--|
C--0--0--0--0--0--0--0--|--0--0--0--0--0--0--0--|


   E  E  E  E  E  E  E     E  E  E  E  E  E  E   
D-----------------------|-----------------------|
A--15-15-15-15-15-15-15-|--15-15-15-15-15-15-15-|
F--14-14-14-14-14-14-14-|--14-14-14-14-14-14-14-|
C--12-12-12-12-12-12-12-|--12-12-12-12-12-12-12-|
G--0--0--0--0--0--0--0--|--0--0--0--0--0--0--0--|
C--0--0--0--0--0--0--0--|--0--0--0--0--0--0--0--|


   E  E  E  E  E  E  E     E  E  E  E  E  E   
D-----------------------|--------------------|
A--15-15-15-15-15-15-15-|--15-15-15-13-15-16-|
F--14-14-14-14-14-14-14-|--14-14-14-14-14-15-|
C--12-12-12-12-12-12-12-|--12-12-12-12-12-13-|
G--0--0--0--0--0--0--0--|--0--0--0--0--0--0--|
C--0--0--0--0--0--0--0--|--0--0--0--0--0--0--|


  E  E  E  E  E  E  E  E  E  E  E  E  E  E  E  E  E  E  E  E  E  E  E  E  
D-13-13-13-13-13-13-13-13|13-13-13-13-13-13-13-13|13-13-12-12-12-12-12-12|
A-15-15-15-15-15-15-15-15|15-15-15-15-15-15-15-15|15-15-13-13-13-13-13-13|
F-10-10-10-10-10-10-10-10|10-10-10-10-10-10-10-10|10-10-9--9--9--9--9--9-|
C------------------------|-----------------------|-----------------------|
G------------------------|-----------------------|-----------------------|
C------------------------|-----------------------|-----------------------|

No flag large enough...
  E  E  E  E  E  E  E  E  E  E  E  E  E  E  E  E  E  E  E  E  E  E  E  E 
D-12-12-12-12-12-12-12-12|12-12-15-15-15-15-15-15|15-15-15-15-15-15-15-15|
A-13-13-13-13-13-13-13-13|13-13-17-17-17-17-17-17|17-17-17-17-17-17-17-17|
F-9--9--9--9--9--9--9--9-|9--9--12-12-12-12-12-12|12-12-12-12-12-12-12-12|
C------------------------|-----------------------|-----------------------|
G------------------------|-----------------------|-----------------------|
C------------------------|-----------------------|-----------------------|


  E  E  E  E  E  E  E  E  E  E  E  E  E  E  E  E  E  E  E  E  E  E  E  E  
D-15-15-13-13-13-13-13-13|13-13-13-13-13-13-13-13|13-13-17-17-17-17-17-17|
A-17-17-15-15-15-15-15-15|15-15-15-15-15-15-15-15|15-15-18-18-18-18-18-18|
F-12-12-10-10-10-10-10-10|10-10-10-10-10-10-10-10|10-10-14-14-14-14-14-14|
C------------------------|-----------------------|-----------------------|
G------------------------|-----------------------|-----------------------|
C------------------------|-----------------------|-----------------------|


  E  E  E  E  E  E  E  E  E  E  E  E  E  E  E  E  E  E  E  E  E  E  E  E
D-17-17-17-17-17-17-17-17|17-17-15-15-15-15-15-15|15-15-15-15-15-15-15-15|
A-18-18-18-18-18-18-18-18|18-18-17-17-17-17-17-17|17-17-17-17-17-17-17-17|
F-14-14-14-14-14-14-14-14|14-14-12-12-12-12-12-12|12-12-12-12-12-12-12-12|
C------------------------|-----------------------|-----------------------|
G------------------------|-----------------------|-----------------------|
C------------------------|-----------------------|-----------------------|


  E  E  E  E  E  E  E  E  E  E  E  E  E  E  E  E  E  E  E  E  E  E  E  E  
D-15-15-18-18-18-18-18-18|18-18-18-18-18-18-18-18|18-18-17-17-17-17-17-17|
A-17-17-20-20-20-20-20-20|20-20-20-20-20-20-20-20|20-20-18-18-18-18-18-18|
F-12-12-15-15-15-15-15-15|15-15-15-15-15-15-15-15|15-15-14-14-14-14-14-14|
C------------------------|-----------------------|-----------------------|
G------------------------|-----------------------|-----------------------|
C------------------------|-----------------------|-----------------------|


  E  E  E  E  E  E  E
D-17-17-17-17-17-17-17|
A-18-18-18-18-18-18-18|
F-14-14-14-14-14-14-14|
C---------------------|
G---------------------|
C---------------------|

Their aiming the race...
    Q    E  E  E  E  E  E     Q    E  E  E  E  E  E
D-----------------10h11p10|-----------------10h11p10--|
A-------------------------|---------------------------|
F-------------------------|---------------------------|
C---12---12-12-12---------|---12---12-12-12-----------|
G-------------------------|---------------------------|
C-------------------------|---------------------------|


    Q    E  E  E  E  E  E     Q    E  E  E  E  E  E
D-----------------10h11p10|-----------------10h11p10--|
A-------------------------|---------------------------|
F-------------------------|---------------------------|
C---12---12-12-12---------|---12---12-12-12-----------|
G-------------------------|---------------------------|
C-------------------------|---------------------------|


    Q    E  E  E  E  E  E     Q    E  E  E  E  E  E
D-----------------10h11p10|-----------------10h11p10--|
A-------------------------|---------------------------|
F-------------------------|---------------------------|
C---12---12-12-12---------|---12---12-12-12-----------|
G-------------------------|---------------------------|
C-------------------------|---------------------------|


    Q    E  E  E  E  E  E     Q    E  E  E  E  E  E
D---10---10-10-10-10-10-10|---10---10-10-10-10-10-10--|
A-------------------------|---------------------------|
F-------------------------|---------------------------|
C-------------------------|---------------------------|
G-------------------------|---------------------------|
C-------------------------|---------------------------|

We don't give a damn...
  Q.    Q   E E E Q.   E Q   E E E Q.   E E   E E E Q.   E Q   E E E Q. 
D------------------|----------------|----------------|-----------------|
A------------------|----------------|----------------|-----------------|
F------------------|----------------|----------------|-----------------|
C-3-----3---3-3-3-8|---8-8---8-8-8-1|---1-1---1-1-1-5|---5-5---5-5-5-11|
G-3-----3---3-3-3-8|---8-8---8-8-8-1|---1-1---1-1-1-5|---5-5---5-5-5-11|
C-3-----3---3-3-3-8|---8-8---8-8-8-1|---1-1---1-1-1-5|---5-5---5-5-5-11|


    E  Q    E  E  E  Q.   E Q   E E E  Q.
D---------------------|-------------------|
A---------------------|-------------------|
F---------------------|-------------------|
C---11-11---11-11-11-3|---3-3---3-3-3-----|
G---11-11---11-11-11-3|---3-3---3-3-3-----|
C---11-11---11-11-11-3|---3-3---3-3-3-*5*-|

Right now...
    Q    E E E  Q.    Q    E E E 
D-----------------|--------------|
A-----------------|--------------|
F-----------------|--------------|
C---0----0-0-0-*5*|---0----0-0-0-|
G---0----0-0-0----|---0----0-0-0-|
C---0----0-0-0----|---0----0-0-0-|

We don't give a f***...
  Q.    Q   E E E Q.   E Q   E E E Q.   E E   E E E Q.   E Q   E E E Q. 
D------------------|----------------|----------------|-----------------|
A------------------|----------------|----------------|-----------------|
F------------------|----------------|----------------|-----------------|
C-3-----3---3-3-3-8|---8-8---8-8-8-1|---1-1---1-1-1-5|---5-5---5-5-5-11|
G-3-----3---3-3-3-8|---8-8---8-8-8-1|---1-1---1-1-1-5|---5-5---5-5-5-11|
C-3-----3---3-3-3-8|---8-8---8-8-8-1|---1-1---1-1-1-5|---5-5---5-5-5-11|


    E  Q    E  E  E  Q.   E Q   E E E E
D---------------------|-----------------|
A---------------------|-----------------|
F---------------------|-----------------|
C---11-11---11-11-11-3|---3-3---3-3-3-3-|
G---11-11---11-11-11-3|---3-3---3-3-3-3-|
C---11-11---11-11-11-3|---3-3---3-3-3-3-|

RIGHT NOW!!!!!!
   Q.  Q    E E E  Q.    Q    E E E 
D--------------------|--------------|
A--------------------|--------------|
F--------------------|--------------|
C------0----0-0-0-*5*|---0----0-0-0-|
G------0----0-0-0----|---0----0-0-0-|
C-*5*--0----0-0-0----|---0----0-0-0-|


   Q.  Q    E E E  Q.    Q    E E E 
D--------------------|--------------|
A--------------------|--------------|
F--------------------|--------------|
C------0----0-0-0-*5*|---0----0-0-0-|
G------0----0-0-0----|---0----0-0-0-|
C-*5*--0----0-0-0----|---0----0-0-0-|


   Q.  Q    E E E  Q.    Q    E E E 
D--------------------|--------------|
A--------------------|--------------|
F--------------------|--------------|
C------0----0-0-0-*5*|---0----0-0-0-|
G------0----0-0-0----|---0----0-0-0-|
C-*5*--0----0-0-0----|---0----0-0-0-|

RIGHT NA-NA-NA-NOW!!!!!!!
   Q.  Q    E E E  Q.    Q    E E E E
D--------------------|----------------|
A--------------------|----------------|
F--------------------|----------------|
C------0----0-0-0-*5*|---0----0-0-0-0-|
G------0----0-0-0----|---0----0-0-0-0-|
C-*5*--0----0-0-0----|---0----0-0-0-0-|

----------------------------------------------------------------------------
Duration Legend
---------------
W - whole; H - half; Q - quarter; E - 8th; S - 16th; T - 32nd; X - 64th;  a - acciaccatura
+ - note tied to previous; . - note dotted; .. - note double dotted
Uncapitalized letters represent notes that are staccato (1/2 duration)
Irregular groupings are notated above the duration line
Duration letters will always appear directly above the note/fret number it 
represents the duration for.  
Duration letters with no fret number below them represent rests.  
Multibar rests are notated in the form Wxn, where n is the number of bars to rest for.  Low
melody durations appear below the staff

Tablature Legend
----------------
 h   - hammer-on
 p   - pull-off
 b   - bend
 pb  - pre-bend
 r   - bend release (if no number after the r, then release immediately)
 /\  - slide into or out of (from/to "nowhere")
 s   - legato slide
 S   - shift slide
*n*  - natural harmonic
[n]  - artificial harmonic
n(n) - tapped harmonic
 ~   - vibrato
 tr  - trill
 T   - tap
 TP  - trem. picking
 PM  - palm muting
\n/  - tremolo bar dip; n = amount to dip
 \n  - tremolo bar down
 n/  - tremolo bar up
/n\  - tremolo bar inverted dip
 =   - hold bend; also acts as connecting device for hammers/pulls
 <> - volume swell (louder/softer)
 x   - on rhythm slash represents muted slash
 o   - on rhythm slash represents single note slash

Tap to rate this tab
 
# A B C D E F G H I J K L M N O P Q R S T U V W X Y Z