Song name
# A B C D E F G H I J K L M N O P Q R S T U V W X Y Z

System Of A Down - Metro Tab tab

****///----The Metro----\\\****
This song's tuning is drop D; then all strings down one whole step
(C-G-C-F-A-D)


Artist: System of a down (Berlin Cover)
Release: Dracula 2000 (Soundtrack)
Transcribed by: Pedro Hernandez



A
1:-x-x-x--x-x-x-----x-x-x--x-x-x-x-----x-x--x--x--x-|
2:-x-x-x--x-x-x-----x-x-x--x-x-x-x-----x-x--x--x--x-|
3:-x-x-x--x-x-x-----x-x-x--x-x-x-x-----x-x--x--x--x-|
4:-x-x-x--x-x-x-----x-x-x--x-x-x-x-----x-x--x--x--x-|
5:-x-x-x--x-x-x-----x-x-x--x-x-x-x-----x-x--x--x--x-|
6:-x-x-x--x-x-x-----x-x-x--x-x-x-x-----x-x--x--x--x-|


1:-14--14--14--14-14--14--14-14--14--|-14--14--14--14-14--14--14-14--14---x------|
2:-----------------------------------|------------------------------------x(14x)-|
3:-----------------------------------|------------------------------------x------|
4:-----------------------------------|-------------------------------------------|
5:-----------------------------------|-------------------------------------------|
6:-----------------------------------|-------------------------------------------|
  2x:                                 1x:
1:-14--14--14--14-14--14--14-14--14--|-10--------------------------------|
2:-----------------------------------|-----10--11------------------------|
3:-----------------------------------|-------------12--14--10--12--9--7~-|
4:-----------------------------------|-----------------------------------|
5:-----------------------------------|-----------------------------------|
6:-----------------------------------|-----------------------------------|

1:-10-----------------------------------------------------------------|
2:-----10--11-11------------------------------------------------------|
3:---------------12--14--10--12--9--7b9.9.9.9.9.9.9.9r7.7.7.7.7.7.7.7-|
4:--------------------------------------------------------------------|
5:--------------------------------------------------------------------|
6:--------------------------------------------------------------------|


B
1:-------------------------|-------------------------|-----------------|------------------------|
2:-------------------------|-------------------------|-----------------|------------------------|
3:-------------------------|-------------------------|-----------------|------------------------|
4:-10-10-10-10-10-10-10-10-|-12-12-12-12-12-12-12-12-|-8-8-8-8-8-8-8-8-|-15-15-15-15-15-15-15-15|
5:-10-10-10-10-10-10-10-10-|-12-12-12-12-12-12-12-12-|-8-8-8-8-8-8-8-8-|-15-15-15-15-15-15-15-15|
6:-10-10-10-10-10-10-10-10-|-12-12-12-12-12-12-12-12-|-8-8-8-8-8-8-8-8-|-15-15-15-15-15-15-15-15|
                                                       pm.................
1:-------------------------|-------------------------|-----------------------------|
2:-------------------------|-------------------------|-----------------------------|
3:-------------------------|-------------------------|-----------------------------|
4:-10-10-10-10-10-10-10-10-|-12-12-12-12-12-12-12-12-|-8--0-8--0-8--0-8--0-8-8-8-8-|
5:-10-10-10-10-10-10-10-10-|-12-12-12-12-12-12-12-12-|-8--0-8--0-8--0-8--0-8-8-8-8-|
6:-10-10-10-10-10-10-10-10-|-12-12-12-12-12-12-12-12-|-8--0-8--0-8--0-8--0-8-8-8-8-|

1:-------------------------|-------------------------|-----------------|------------------------|
2:-------------------------|-------------------------|-----------------|------------------------|
3:-------------------------|-------------------------|-----------------|------------------------|
4:-10-10-10-10-10-10-10-10-|-12-12-12-12-12-12-12-12-|-8-8-8-8-8-8-8-8-|-15-15-15-15-15-15-15-15|
5:-10-10-10-10-10-10-10-10-|-12-12-12-12-12-12-12-12-|-8-8-8-8-8-8-8-8-|-15-15-15-15-15-15-15-15|
6:-10-10-10-10-10-10-10-10-|-12-12-12-12-12-12-12-12-|-8-8-8-8-8-8-8-8-|-15-15-15-15-15-15-15-15|

1:-------------------------|-------------------------|---------------------|
2:-------------------------|-------------------------|---------------------|
3:-------------------------|-------------------------|---------------------|
4:-10-10-10-10-10-10-10-10-|-12-12-12-12-12-12-12-12-|-8--8--8--8--8-8-8-8-|
5:-10-10-10-10-10-10-10-10-|-12-12-12-12-12-12-12-12-|-8--8--8--8--8-8-8-8-|
6:-10-10-10-10-10-10-10-10-|-12-12-12-12-12-12-12-12-|-8--8--8--8--8-8-8-8-|


C
3x:                         1x:
1:-------------------------|---------------------------------|
2:-------------------------|---------------------------------|
3:-------------------------|---------------------------------|
4:-------------------------|---------------------------------|
5:------------3--3---------|-----------------3-3-------------|
6:-0--7--2--3------5--8--7-|-0-0-7-7-2-2-3-3-----5-5-8-8-7-7-|


D
7x:                   1x:
1:-10---10---10---10-|--10---10----10-10-10-10-10-|
2:-10---10---10---10-|--10---10----10-10-10-10-10-|
3:-------------------|----------------------------|
4:-------------------|----------------------------|
5:-------------------|----------------------------|
6:-------------------|----------------------------|


E(without bass)
1:---------------------|
2:---------------------|
3:---------------------|
4:-8--8--8--8--8-8-8-8-|
5:-8--8--8--8--8-8-8-8-|
6:-8--8--8--8--8-8-8-8-|


F
1:---------------------|
2:---------------------|
3:---------------------|
4:-8--8--8--8--8-8-8-8-|
5:-8--8--8--8--8-8-8-8-|
6:-8--8--8--8--8-8-8-8-|


G
1:-10------------------|-10------------------|-10------17-15---------------|
2:-----10--11----10-11-|-----10--11----10-11-|-----10--------17-18-15------|
3:------------12-------|------------12-------|--------------------------14-|
4:---------------------|---------------------|-----------------------------|
5:---------------------|---------------------|-----------------------------|
6:---------------------|---------------------|-----------------------------|

1:-10------------------|-10------------------|-10------17-15------------------------------------|
2:-----10--11----10-11-|-----10--11----10-11-|-----10--------17-18-15-14-------15151414---------|
3:------------12-------|------------12-------|---------------------------17-16---------17171616-|
4:---------------------|---------------------|--------------------------------------------------|
5:---------------------|---------------------|--------------------------------------------------|
6:---------------------|---------------------|--------------------------------------------------|


H
1:--------------------------------------|
2:--------------------------------------|
3:-12-12--14-14--17-17--17-17--17171717-|
4:--------------------------------------|
5:-10-10--12-12--15-15--15-15--15151515-|
6:--------------------------------------|


I
3x:                                 1x:
1:---------------------------------|-------------------------------|
2:---------------------------------|-------------------------------|
3:---------------------------------|-------------------------------|
4:---------------------------------|-------------------------------|
5:-----------------3-3-------------|-----------------3-3-----------|
6:-0-0-7-7-2-2-3-3-----5-5-8-8-7-7-|-0-0-7-7-2-2-3-3-----5-5-8-8-7-|


ORDER:
=====

A
B
C
D
B
E 2x
F 4x
G
B (When you play the part with the rhytm-brake, play with a 2nd guitar Riff 'H')
I

Tap to rate this tab
 
# A B C D E F G H I J K L M N O P Q R S T U V W X Y Z