Song name
# A B C D E F G H I J K L M N O P Q R S T U V W X Y Z

System Of A Down - Toxicity tab

Intro:
|----------------------------------------------------------------------------------|
|----------------------------------------------------------------------------------|
|----------------------------------------------------------------------------------|
|---7---7---7---7---/9---9---9---9\7---7---8---8---7---7/9---9----10----10---9---9-|
|-5---5---5---5---/7---7---7---7\5---5---5---5---5---5/7---7---7---7---7---7---7---|
|----------------------------------------------------------------------------------|


Chorus:

|--------------------------------------           |-------------------------------|
|--------------------------------------           |-------------------------------|
|-------------------------------------- =times 2  |-------------------------------|=1
|--------------------------------------           |-------------------------------|
|-0----3-2-0-2-0----8--8-8-8--7--7-7-7-           |-3-2-0-2-0-3-2-0-2-0-3-2-0-2-0-|
|-0----3-2-0-2-0----8--8-8-8--7--7-7-7-           |-3-2-0-2-0-3-2-0-2-0-3-2-0-2-0-|

and that is it!!!

it is  Intro,chorus,verse(u play the intro for the verse),chorus,verse,chorus the the mid 8 but i cant tab that then the chorus.

if this is not right tell me on askew474@hotmail.com
Tap to rate this tab
 
# A B C D E F G H I J K L M N O P Q R S T U V W X Y Z