System Of A Down - Suggestions tab

Suggestions tab by S.O.A.D.

Tabbed by thiscomposer
(Mail me at thiscomposer@mail.ru)


Tablature legend
==================
^-bend up
~-vibrato
x-dead note
*-palm mute




Intro
(slight distorted guitar)X2
	X4	\	x4
D|----------|----------|
A|-------0--|-------0--|
F|-----4----|-----0----|
C|----------|----------|
G|----------|----------|
C|----------|----------|

(Acoustic guitar) X2

	X4	\	x4
D|--------------|--------------|
A|--------0-----|--------0-----|
F|-----16---16--|-----16---16--|
C|--14----------|--15----------|
G|--------------|--------------|
C|--------------|--------------|



Verse X4(Palm Muted)

D|--------------------------------------------------|
A|--------------------------------------------------|
F|--------------------------------------------------|
C|---9-9-9---9---9---9---9-9---9---9---9---9---9-9-9|
G|-7---7---7---0---7---0-0---8---0---8---0---8---8--|
C|--------------------------------------------------|



Chorus X2

D|----------------------------------------------|
A|----------------------------------------------|
F|----------------------------------------------|
C|----------------------------------------------|
G|-2--2--2--2--2-2-2-2-2--3--3--3--3--3-3-3-3-3-|
C|-2--2--2--2--2-2-2-2-2--3--3--3--3--3-3-3-3-3-|


Verse X4(Palm Muted)

D|--------------------------------------------------|
A|--------------------------------------------------|
F|--------------------------------------------------|
C|---9-9-9---9---9---9---9-9---9---9---9---9---9-9-9|
G|-7---7---7---0---7---0-0---8---0---8---0---8---8--|
C|--------------------------------------------------|



Chorus X2

D|----------------------------------------------|
A|----------------------------------------------|
F|----------------------------------------------|
C|----------------------------------------------|
G|-2--2--2--2--2-2-2-2-2--3--3--3--3--3-3-3-3-3-|
C|-2--2--2--2--2-2-2-2-2--3--3--3--3--3-3-3-3-3-|



Bridge X2

D|--------------------------------------------------------------------------|
A|--------------------------------------------------------------------------|
F|8---8---8-8---8-8-8-8-8-8-8-8-11----11----11-11----11-11-11-11-11-11-11-11|
C|x---x---x-x---x-x-x-x-x-x-x-x-x-----x-----x--x-----x--x--x--x--x--x--x--x-|
G|7-7-7-7-7-7-7-7-7-7-7-7-7-7-7-10-10-10-10-10-10-10-10-10-10-10-10-10-10-10|
C|--------------------------------------------------------------------------|



Interlude X2			\  X1

(Slight distorted guitar)
	X4 \	X4		  
D|---------|----------|		|--0~~-|
A|-----0---|-----0----|		|--0~~-|
F|---4---4-|---4---4--|		|--4~~-|
C|-2-------|-3--------|		|--3~~-|
G|---------|----------|		|------|
C|---------|----------|		|------|

(Acoustic guitar) X2		\  X1

	X4	\	x4
D|--------------|--------------||--0~~--|
A|--------0-----|--------0-----||--0~~--|
F|-----16---16--|-----16---16--||--16~~-|
C|--14----------|--15----------||--14~~-|
G|--------------|--------------||-------|
C|--------------|--------------||-------|



Riff 1 X2

D|--------------------------------------------------|
A|--------------------------------------------------|
F|--------------------------------------------------|
C|--------------------------------------------------|
G|-2---2--2-2--2-2-2-2-2-2--3---3--3-3--3-3-3-3-3-3-|
C|-2---2--2-2--2-2-2-2-2-2--3---3--3-3--3-3-3-3-3-3-|



Break X1

D|------------------------------------------------------------------------|
A|------------------------------------------------------------------------|
F|------------------------------------------------------------------------|
C|---------------------------------9^---------------------------------10^-|
G|-7-7-7-7-7-7-7-7-7-7-7-7-7-7-7-7----8-8-8-8-8-8-8-8-8-8-8-8-8-8-8-8-----|
C|------------------------------------------------------------------------|
   * * * * * * * * * * * * * * * *    * * * * * * * * * * * * * * * *

D|--------------------------------------------------------------------------|
A|--------------------------------------------------------------------------|
F|--------------------------------------------------------------------------|
C|---------------------9-9-9-9-9-9-9^-------------10101010101010101010101010|
G|-7-7-7-7-7-7-7-7-7-7-7-7-7-7-7-7----8-8-8-8-8-8-8-8-8-8-8-8-8-8-8-8-8-8-8-|
C|--------------------------------------------------------------------------|
   * * * * * * * * * * * * * * * *    * * * * * * * * * * * * *



Verse X4(Palm Muted)

D|--------------------------------------------------|
A|--------------------------------------------------|
F|--------------------------------------------------|
C|---9-9-9---9---9---9---9-9---9---9---9---9---9-9-9|
G|-7---7---7---0---7---0-0---8---0---8---0---8---8--|
C|--------------------------------------------------|



Chorus X2

D|----------------------------------------------|
A|----------------------------------------------|
F|----------------------------------------------|
C|----------------------------------------------|
G|-2--2--2--2--2-2-2-2-2--3--3--3--3--3-3-3-3-3-|
C|-2--2--2--2--2-2-2-2-2--3--3--3--3--3-3-3-3-3-|



Bridge X2								    

D|--------------------------------------------------------------------------|
A|--------------------------------------------------------------------------|
F|8---8---8-8---8-8-8-8-8-8-8-8-11----11----11-11----11-11-11-11-11-11-11-11|
C|x---x---x-x---x-x-x-x-x-x-x-x-x-----x-----x--x-----x--x--x--x--x--x--x--x-|
G|7-7-7-7-7-7-7-7-7-7-7-7-7-7-7-10-10-10-10-10-10-10-10-10-10-10-10-10-10-10|
C|--------------------------------------------------------------------------|



Ending With:(X1)

D|--------------|
A|--------------|
F|--------------|
C|-2~~~~~~~~~~--|
G|-2~~~~~~~~~~--|
C|-2~~~~~~~~~~--|
Tap to rate this tab
 
# A B C D E F G H I J K L M N O P Q R S T U V W X Y Z