Song name
# A B C D E F G H I J K L M N O P Q R S T U V W X Y Z

System Of A Down - Ddevil tab

Intro on bass and drums , on 2nd bass-drum line play that sound:

|------------|
|------------|
|------------|
|-<5>~~~~~~~-|
|------------|
|------------|



Breakdown X4

|-----------------------------------------|
|-----------------------------------------|
|-----------------------------------------|
|-----------------------------------------|
|-5--6-4-5-5--6-6-4-5-5--6-4-5-5--6-6-4-5-|
|-5--6-4-5-5--6-6-4-5-5--6-4-5-5--6-6-4-5-|



Verse X2

|-------------------------------------------------------------|
|-------------------------------------------------------------|
|---------------------------------------------------1-0-------|
|-----------------------------------------------1-0-----1-0---|
|-0-1-0-1-0-1-0-1-0-1-0-1-0-1-0-1-0-1-0-1-0-1-0-------------1-|
|-------------------------------------------------------------|


Chorus
	X1	          /	    X3
|-------------------------|-------------------|
|-------------------------|-------------------|
|-------------------------|-------------------|
|-------------------------|-------------------|
|-5~~-4~~-6~~-5~~-6-4-5-5-|-6-6-4-5-5-6~~-5~~-|
|-5~~-4~~-6~~-5~~-6-4-5-5-|-6-6-4-5-5-6~~-5~~-|


Verse X2

|-------------------------------------------------------------|
|-------------------------------------------------------------|
|---------------------------------------------------1-0-------|
|-----------------------------------------------1-0-----1-0---|
|-0-1-0-1-0-1-0-1-0-1-0-1-0-1-0-1-0-1-0-1-0-1-0-------------1-|
|-------------------------------------------------------------|


Chorus
	X1	          /	    X3
|-------------------------|-------------------|
|-------------------------|-------------------|
|-------------------------|-------------------|
|-------------------------|-------------------|
|-5~~-4~~-6~~-5~~-6-4-5-5-|-6-6-4-5-5-6~~-5~~-|
|-5~~-4~~-6~~-5~~-6-4-5-5-|-6-6-4-5-5-6~~-5~~-|



Interlude

1st part X2

|--------------------------------------|
|--------------------------------------|
|-(clean guitar----)-------------------|
|-6-4-5-5--6-6-4-5-5-------------------|
|-------------------6-4-5-5--6-6-4-5-5-|
|-------------------6-4-5-5--6-6-4-5-5-|


2nd part X1

|------------------------------------------------------------|
|------------------------------------------------------------|
|-(clean)---------(clean)--------(clean guitar-------------)-|
|-5-6-4-5---------5-6-4-5--------5-6-4-5-5-6-4-5-5-6-6-4-5-5-|
|---------5-6-4-5--------5-6-4-5-----------------------------|
|---------5-6-4-5--------5-6-4-5-----------------------------|


Verse X2

|-------------------------------------------------------------|
|-------------------------------------------------------------|
|---------------------------------------------------1-0-------|
|-----------------------------------------------1-0-----1-0---|
|-0-1-0-1-0-1-0-1-0-1-0-1-0-1-0-1-0-1-0-1-0-1-0-------------1-|
|-------------------------------------------------------------|


Chorus
	X1	          /	    X3
|-------------------------|-------------------|
|-------------------------|-------------------|
|-------------------------|-------------------|
|-------------------------|-------------------|
|-5~~-4~~-6~~-5~~-6-4-5-5-|-6-6-4-5-5-6~~-5~~-|
|-5~~-4~~-6~~-5~~-6-4-5-5-|-6-6-4-5-5-6~~-5~~-|


Outro X4

|----------------------------------------|
|----------------------------------------|
|----------------------------------------|
|----------------------------------------|
|-6-4-5-5--6-6-4-5-5--6-4-5-5--6-6-4-5-5-|
|-6-4-5-5--6-6-4-5-5--6-4-5-5--6-6-4-5-5-|
Tap to rate this tab
 
# A B C D E F G H I J K L M N O P Q R S T U V W X Y Z