Song name
# A B C D E F G H I J K L M N O P Q R S T U V W X Y Z

System Of A Down - Suite Pee tab

                                  Suite-Pee                                     


                                                                System of a Down
Track 2



        NH   NH    NH    TH   TH   NH    NH     
        E    E     E     E    E    E     E  E   
D||--------------------------------------------|
A||--------------------------------------------|
F||*--<>5--<>5S--<>4S--<>3--<>3--<>4S--<>5-----|
C||*-------------------------------------------|
G||--------------------------------------------|
C||--------------------------------------------|


    NH   NH    NH    TH   TH   NH    NH     
    E    E     E     E    E    E     E  E   
-------------------------------------------|
-------------------------------------------|
-------------------------------------------|
--<>5--<>5S--<>4S--<>3--<>3--<>4S--<>5-----|
-------------------------------------------|
-------------------------------------------|


    NH   NH    NH    TH   TH   NH    NH     
    E    E     E     E    E    E     E  E   
-------------------------------------------|
-------------------------------------------|
-------------------------------------------|
-------------------------------------------|
--<>5--<>5S--<>4S--<>3--<>3--<>4S--<>5--L--|
-------------------------------------------|


    NH   NH    NH    TH   TH   NH    NH                                   
    E    E     E     E    E    E     E  E        E  E  E  E  E  E  E  E   
--------------------------------------------||---------------------------|
--------------------------------------------||---------------------------|
-------------------------------------------*||*--------------------------|
--<>5--<>5S--<>4S--<>3--<>3--<>4S--<>5-----*||*--------------------------|
--------------------------------------------||---0--0--1--0--0--0--1-----|
--------------------------------------------||---0--0--1--0--0--0--1-----|


  E  E  E  E  E  E  E  E     E  E  E  E  E  E  E  E   
--------------------------|--------------------------|
--------------------------|--------------------------|
--------------------------|--------------------------|
--------------------------|--------------------------|
--0--0--1--0--0--0--1-----|--0--0--1--0--0--0--1-----|
--0--0--1--0--0--0--1-----|--0--0--1--0--0--0--1-----|


  E  E  E  E  E  E   Q          E  E  E  E  E  E  E  E   
----------------------------||--------------------------|
----------------------------||--------------------------|
---------------------------*||--7--7--7--7--8--7--8-----|
---------------------------*||--------------------------|
--0--0--1--0--0--0--12S-----||--------------------------|
--0--0--1--0--0--0--12S-----||--------------------------|


  E  E  E  E  E  E   Q        E  E  E  E  E  E  E  E   
--------------------10b----|--------------------------|
---------------------------|--------------------------|
--7--7--7--7--8--7---------|--7--7--7--7--8--7--8-----|
---------------------------|--------------------------|
---------------------------|--------------------------|
---------------------------|--------------------------|


  E  E  E  E  E  E   Q        E  E  E  E  E  E  E  E   
--------------------10b----|--------------------------|
---------------------------|--------------------------|
--7--7--7--7--8--7---------|--7--7--7--7--8--7--8-----|
---------------------------|--------------------------|
---------------------------|--------------------------|
---------------------------|--------------------------|


  E  E  E  E  E  E   Q        E  E  E  E  E  E  E  E   
--------------------10b----|--------------------------|
---------------------------|--------------------------|
--7--7--7--7--8--7---------|--7--7--7--7--8--7--8-----|
---------------------------|--------------------------|
---------------------------|--------------------------|
---------------------------|--------------------------|


  E  E  E  E  E  E   E  E       E  E  E  E  E  E  E  E   
--------------------10-----||---------------------------|
---------------------------||---------------------------|
--7--7--7--7--8--7---------||*--------------------------|
---------------------------||*--------------------------|
---------------------------||---0--0--1--0--0--0--1-----|
---------------------------||---0--0--1--0--0--0--1-----|


  E  E  E  E  E  E  E  E     E  E  E  E  E  E  E  E   
--------------------------|--------------------------|
--------------------------|--------------------------|
--------------------------|--------------------------|
--------------------------|--------------------------|
--0--0--1--0--0--0--1-----|--0--0--1--0--0--0--1-----|
--0--0--1--0--0--0--1-----|--0--0--1--0--0--0--1-----|


  E  E  E  E  E  E   Q          E  E  E  E  E  E  E  E   
----------------------------||--------------------------|
----------------------------||--------------------------|
---------------------------*||--7--7--7--7--8--7--8-----|
---------------------------*||--------------------------|
--0--0--1--0--0--0--12S-----||--------------------------|
--0--0--1--0--0--0--12S-----||--------------------------|


  E  E  E  E  E  E   Q        E  E  E  E  E  E  E  E   
--------------------10b----|--------------------------|
---------------------------|--------------------------|
--7--7--7--7--8--7---------|--7--7--7--7--8--7--8-----|
---------------------------|--------------------------|
---------------------------|--------------------------|
---------------------------|--------------------------|


  E  E  E  E  E  E   Q        E  E  E  E  E  E  E  E   
--------------------10b----|--------------------------|
---------------------------|--------------------------|
--7--7--7--7--8--7---------|--7--7--7--7--8--7--8-----|
---------------------------|--------------------------|
---------------------------|--------------------------|
---------------------------|--------------------------|


  E  E  E  E  E  E   Q        E  E  E  E  E  E  E  E   
--------------------10b----|--------------------------|
---------------------------|--------------------------|
--7--7--7--7--8--7---------|--7--7--7--7--8--7--8-----|
---------------------------|--------------------------|
---------------------------|--------------------------|
---------------------------|--------------------------|


  E  E  E  E  E  E   E  E       E  E  E  E  E  E  E  E   
--------------------10-----||---------------------------|
---------------------------||---------------------------|
--7--7--7--7--8--7---------||*--------------------------|
---------------------------||*--------------------------|
---------------------------||---0--0--1--0--0--0--1-----|
---------------------------||---0--0--1--0--0--0--1-----|


  E  E  E  E  E  E  E  E     E  E  E  E  E  E  E  E   
--------------------------|--------------------------|
--------------------------|--------------------------|
--------------------------|--------------------------|
--------------------------|--------------------------|
--0--0--1--0--0--0--1-----|--0--0--1--0--0--0--1-----|
--0--0--1--0--0--0--1-----|--0--0--1--0--0--0--1-----|


                       NH                                                    
  E  E  E  E  E  E     Q          W                   S S E  E  E  H         
------------------------------||-------------------|------------------------|
------------------------------||-------------------|------------------------|
-----------------------------*||-------------------|------------------------|
-----------------------------*||-------------------|------------------------|
--0--0--1--0--0--0--<>12b-----||-------------------|--0-1-0--0--5--4--------|
--0--0--1--0--0--0--<>12b-----||-------------------|--0-1-0--0--5--4--------|


  S S E  E  E  H           S S E  E  E  H         
------------------------|------------------------|
------------------------|------------------------|
------------------------|------------------------|
------------------------|------------------------|
--0-1-0--0--5--4--------|--0-1-0--0--5--4--------|
--0-1-0--0--5--4--------|--0-1-0--0--5--4--------|


            Palm Mute                                      
            PM        PM          PM PM PM PM PM PM        
  S S E  E  E         H           S  S  E  E  E  H         
-------------------------------|--------------------------|
-------------------------------|--------------------------|
-------------------------------|--------------------------|
-------------------------------|--------------------------|
--0-1-0--0--5---------4--------|--0--1--0--0--5--4--------|
--0-1-0--0--5---------4--------|--0--1--0--0--5--4--------|


  PM PM PM PM PM PM          PM PM PM PM PM PM        
  S  S  E  E  E  H           S  S  E  E  E  H         
--------------------------|--------------------------|
--------------------------|--------------------------|
--------------------------|--------------------------|
--------------------------|--------------------------|
--0--1--0--0--5--4--------|--0--1--0--0--5--4--------|
--0--1--0--0--5--4--------|--0--1--0--0--5--4--------|


  PM PM PM PM PM PM              PM PM PM PM PM PM        
  S  S  E  E  E  E  E  Q         S  S  E  E  E  H         
------------------------------|--------------------------|
------------------------------|--------------------------|
------------------------------|--------------------------|
--------------------5--4br----|--------------------------|
--0--1--0--0--5--4------------|--0--1--0--0--5--4--------|
--0--1--0--0--5--4------------|--0--1--0--0--5--4--------|


  PM PM PM PM PM PM          PM PM PM PM PM PM        
  S  S  E  E  E  H           S  S  E  E  E  H         
--------------------------|--------------------------|
--------------------------|--------------------------|
--------------------------|--------------------------|
--------------------------|--------------------------|
--0--1--0--0--5--4--------|--0--1--0--0--5--4--------|
--0--1--0--0--5--4--------|--0--1--0--0--5--4--------|


                 End PM                                                       
  PM PM PM PM PM                                                              
  S  S  E  E  E  H            S S E  E  E  H           S S E  E  E  H         
---------------------------|------------------------|------------------------|
---------------------------|------------------------|------------------------|
---------------------------|------------------------|------------------------|
---------------------------|------------------------|------------------------|
--0--1--0--0--5--4b--------|--0-1-0--0--5--4--------|--0-1-0--0--5--4--------|
--0--1--0--0--5--4b--------|--0-1-0--0--5--4--------|--0-1-0--0--5--4--------|


  S S E  E  E  H           S S E  E  E  H           S S E  E  E  Q      Q     
------------------------|------------------------|---------------------------|
------------------------|------------------------|---------------------------|
------------------------|------------------------|---------------------------|
------------------------|------------------------|--0-1-0--0--5--4----<>4----|
--0-1-0--0--5--4--------|--0-1-0--0--5--4--------|---------------------------|
--0-1-0--0--5--4--------|--0-1-0--0--5--4--------|---------------------------|


  S S E  E  E  Q      Q       S S E  E  E  Q      Q     
---------------------------|---------------------------|
---------------------------|---------------------------|
---------------------------|---------------------------|
--0-1-0--0--5--4----<>4----|--0-1-0--0--5--4----<>4----|
---------------------------|---------------------------|
---------------------------|---------------------------|


  S S E  E  E    E  E  Q         E  E  E  E  E  E  E  E   
----------------------------||---------------------------|
----------------------------||---------------------------|
----------------------------||*--------------------------|
--0-1-0--0--5--<>4----------||*--------------------------|
----------------------------||---0--0--1--0--0--0--1-----|
----------------------------||---0--0--1--0--0--0--1-----|


  E  E  E  E  E  E  E  E     E  E  E  E  E  E  E  E   
--------------------------|--------------------------|
--------------------------|--------------------------|
--------------------------|--------------------------|
--------------------------|--------------------------|
--0--0--1--0--0--0--1-----|--0--0--1--0--0--0--1-----|
--0--0--1--0--0--0--1-----|--0--0--1--0--0--0--1-----|


                       NH                                  
  E  E  E  E  E  E     Q          E  E  E  E  E  E   Q     
------------------------------||--------------------10----|
------------------------------||--------------------------|
-----------------------------*||--7--7--7--7--8--7---7----|
-----------------------------*||--------------------------|
--0--0--1--0--0--0--<>12b-----||--------------------------|
--0--0--1--0--0--0--<>12b-----||--------------------------|


  E  E  E  E  E  E   Q       E  E  E  E  E  E   Q     
--------------------10----|--------------------10----|
--------------------------|--------------------------|
--7--7--7--7--8--7---7----|--7--7--7--7--8--7---7----|
--------------------------|--------------------------|
--------------------------|--------------------------|
--------------------------|--------------------------|


    NH   NH    NH    TH   TH   NH    NH                                
    E    E     E     E    E    E     E  E     E  E  E  E  E  E   Q     
-------------------------------------------|--------------------10----|
-------------------------------------------|--------------------------|
-------------------------------------------|--7--7--7--7--8--7---7----|
--<>5--<>5S--<>4S--<>3--<>3--<>4S--<>5--L--|--------------------------|
-------------------------------------------|--------------------------|
-------------------------------------------|--------------------------|


  E  E  E  E  E  E   Q       E  E  E  E  E  E   Q     
--------------------10----|--------------------10----|
--------------------------|--------------------------|
--7--7--7--7--8--7---7----|--7--7--7--7--8--7---7----|
--------------------------|--------------------------|
--------------------------|--------------------------|
--------------------------|--------------------------|


                                 NH   NH    NH    TH   TH   NH    NH     
  E  E  E  E  E  E  E  E         E    E     E     E    E    E     E  E   
--------------------------||--------------------------------------------|
--------------------------||--------------------------------------------|
--7--7--7--7--8--7--------||*--<>5--<>5s--<>4s--<>3--<>3--<>4s--<>5--L--|
--------------------------||*-------------------------------------------|
--------------------0--0--||--------------------------------------------|
--------------------0--0--||--------------------------------------------|


    NH   NH    NH    TH   TH   NH    NH     
    E    E     E     E    E    E     E  E   
-------------------------------------------|
-------------------------------------------|
-------------------------------------------|
--<>5--<>5S--<>4S--<>3--<>3--<>4S--<>5--L--|
-------------------------------------------|
-------------------------------------------|


    NH   NH    NH    TH   TH   NH    NH     
    E    E     E     E    E    E     E  E   
-------------------------------------------|
-------------------------------------------|
-------------------------------------------|
-------------------------------------------|
--<>5--<>5S--<>4S--<>3--<>3--<>4S--<>5--L--|
-------------------------------------------|


    NH   NH    NH    TH   TH   NH    NH              
    E    E     E     E    E    E     E  E            
--------------------------------------------||-----||
--------------------------------------------||-----||
-------------------------------------------*||-----||
--<>5--<>5S--<>4S--<>3--<>3--<>4S--<>5--L--*||-----||
--------------------------------------------||-----||
--------------------------------------------||-----||




Duration Legend
---------------
W - whole
H - half
Q - quarter
E - 8th
S - 16th
T - 32nd
X - 64th
. - note dotted
|-n-|  - n-tuplets


Tablature Legend
----------------
L - tied note
x - dead note
g - grace note
(n) - ghost note
> - accentuded note
NH - natural harmonic
AH - artificial harmonic
TH - tapped harmonic
SH - semi harmonic
PH - pitch harmonic
h - hammer on
p - pull off
b - bend
br - bendRelease
pb - preBend
pbr - preBendRelease
brb - bendReleaseBend
\n/ - tremolo bar dip
\n - tremolo bar dive
-/n - tremolo bar Release up
/n\ - tremolo bar inverted dip
/n - tremolo bar return
-\n - tremolo bar Release down
S - shift slide
s - legato slide
/ -  slide into from below or out of upwards
\ -  slide into from above or out of downwards
~ - vibrato
W - wide vibrato
tr - trill
TP - tremolo picking
T - tapping
S - slap
P - pop
< - fade in
^ - brush up
v - brush down
Tap to rate this tab
# A B C D E F G H I J K L M N O P Q R S T U V W X Y Z