Song name
# A B C D E F G H I J K L M N O P Q R S T U V W X Y Z

System Of A Down - Violent Pornography tab

Intro:
e|--------------------------------------------------------------------------|
B|--------------------------------------------------------------------------|
G|--------------------------------------------------------------------------|
D|------------------------------------------11------------------------------|
A|------8--9-11---12-11-9-12-11-9--8b---12------12--------------------------|
E|--9-----------------------------------------------------------------------|

Part 2:
e|--------------------------------------------------------------------------|
B|--------------------------------------------------------------------------|
G|--------------------------------------------------------------------------|
D|---5-6---6-7---7-6---6-5--------------------------------------------------|
A|---5-6---6-7---7-6---6-5--------------------------------------------------|
E|---3-4---4-5---5-4---4-3--------------------------------------------------|

Part 3:
e|--------------------------------------------------------------------------|
B|--------------------------------------------------------------------------|
G|--------------------------------------------------------------------------|
D|--00-0--00-0--0000-0-0000-0-00-1-3-4--------------------------------------|
A|--00-0--00-0--0000-0-0000-0-00-1-3-4--------------------------------------|
E|--00-0--00-0--0000-0-0000-0-00-1-3-4--------------------------------------|

e|--------------------------------------------------------------------------|
B|--------------------------------------------------------------------------|
G|--------------------------------------------------------------------------|
D|--00-0--00-0--0000-0-0000-0-00-4-3-1--------------------------------------|
A|--00-0--00-0--0000-0-0000-0-00-4-3-1--------------------------------------|
E|--00-0--00-0--0000-0-0000-0-00-4-3-1--------------------------------------|

Part 4:
e|--------------------------------------------------------------------------|
B|--------------------------------------------------------------------------|
G|--------------------------------------------------------------------------|
D|-------------------------------------------------------------111111111111-|
A|--------888888-999999-111111111111-121212121212-141414141414--------------|
E|-999999-------------------------------------------------------------------|
Tap to rate this tab
 
# A B C D E F G H I J K L M N O P Q R S T U V W X Y Z