Song name
# A B C D E F G H I J K L M N O P Q R S T U V W X Y Z

System Of A Down - Fuck The System tab

Song: Fuck The System
Artist: System Of A Down
Album: Steal This Album!

Lots of triads in this song. And a few natural harmonics.

D||------------10108--------------108-------------10108--------------108-|
A||---------108--------------10108-------------108--------------10108----|
F||----10108--------------108-------------10108--------------108---------|
C||-108--------------10108-------------108--------------10108------------|
G||----------------------------------------------------------------------|
C||----------------------------------------------------------------------|
PM|--XX-X-XX-XX-X-XX--X-XX-XX-X-XX-XX------------------------------------|

D||-----------------------------------|
A||-----------------------------------|
F||-----------------------------------|
C||-----------------------------------|
G||-0-2-3-2----2-3-2-0-2-3-2----2-3-2-|
C||-0-2-3-2-0002-3-2-0-2-3-2-0002-3-2-|x4

D||-----------------------------------|
A||-----------------------------------|
F||-----------------------------------|
C||-----------------------------------|
G||-0-2-3-2----2-3-2-0-2-3-2----2-3-2-|
C||-0-2-3-2-0002-3-2-0-2-3-2-0002-3-2-|x4
PM|-X-X-X-X-XXXX-X-X-X-X-X-X-XXXX-X-X-|

D||-------------------------------10-8-10-8-|
A||---------------------10-8-10-8-----------|
F||-----------10-8-10-8---------------------|
C||-10-8-10-8-------------------------------|
G||-----------------------------------------|
C||-----------------------------------------|

D||-------------------------------------------------------------|
A||-------------------------------------------------------------|
F||-------------------------------------------------------------|
C||-------------------------------------------------------------|
G||-331-331-331-331-331-331-331-331-331-331-331-331-3^-3^-3^-3^-|
C||-------------------------------------------------------------|x2
PM|-XXX-XXX-XXX-XXX-XXX-XXX-XXX-XXX-XXX-XXX-XXX-XXX-------------|

D||-----------------------------------------------------------------|
A||-----------------------------------------------------------------|
F||-----------------------------------------------------------------|
C||-----------------------------------------------------------------|
G||-3-1-3-1-3-1-3-1-3-1-3-1-3-1-3-1-3-1-3-1-3-1-3-1-3-1-3-1-3-1-3-1-|
C||-----------------------------------------------------------------|
PM|---------------------------------X-X-X-X-X-X-X-X-X-X-------------|

D||-------------------------------------------------------------------|
A||-------------------------------------------------------------------|
F||-------------------------------------------------------------------|
C||-0-2-3-2-8-8---0-2-3-2-10-8-10-8-0-2-3-2-8-8---10-8-10-8-10-8-10-8-|
G||-0-2-3-2-8-8---0-2-3-2-10-8-10-8-0-2-3-2-8-8---10-8-10-8-10-8-10-8-|
C||-0-2-3-2-8-8---0-2-3-2-10-8-10-8-0-2-3-2-8-8---10-8-10-8-10-8-10-8-|

D||-------------------------------------------------------------------------------|
A||-------------------------------------------------------------------------------|
F||-------------------------------------------------------------------------------|
C||-0-2-3-2-8-8---0-2-3-2-10-8-10-8-0-2-3-2-8-8---0-2-3-2-0-2-3-2-0-2-3-2-0-2-3-2-|
G||-0-2-3-2-8-8---0-2-3-2-10-8-10-8-0-2-3-2-8-8---0-2-3-2-0-2-3-2-0-2-3-2-0-2-3-2-|
C||-0-2-3-2-8-8---0-2-3-2-10-8-10-8-0-2-3-2-8-8---0-2-3-2-0-2-3-2-0-2-3-2-0-2-3-2-|

D||----------------10108-|
A||-----------10108------|
F||------10108-----------|
C||-10108----------------|
G||----------------------|
C||----------------------|x2

D||-------------------------------------------------------------|
A||-------------------------------------------------------------|
F||-------------------------------------------------------------|
C||-------------------------------------------------------------|
G||-331-331-331-331-331-331-331-331-331-331-331-331-3^-3^-3^-3^-|
C||-------------------------------------------------------------|x2
PM|-XXX-XXX-XXX-XXX-XXX-XXX-XXX-XXX-XXX-XXX-XXX-XXX-------------|

D||-----------------------------------------------------------------|
A||-----------------------------------------------------------------|
F||-----------------------------------------------------------------|
C||-----------------------------------------------------------------|
G||-3-1-3-1-3-1-3-1-3-1-3-1-3-1-3-1-3-1-3-1-3-1-3-1-3-1-3-1-3-1-3-1-|
C||-----------------------------------------------------------------|
PM|---------------------------------X-X-X-X-X-X-X-X-X-X-------------|

D||-------------------------------------------------------------------|
A||-------------------------------------------------------------------|
F||-------------------------------------------------------------------|
C||-0-2-3-2-8-8---0-2-3-2-10-8-10-8-0-2-3-2-8-8---10-8-10-8-10-8-10-8-|
G||-0-2-3-2-8-8---0-2-3-2-10-8-10-8-0-2-3-2-8-8---10-8-10-8-10-8-10-8-|
C||-0-2-3-2-8-8---0-2-3-2-10-8-10-8-0-2-3-2-8-8---10-8-10-8-10-8-10-8-|

D||-------------------------------------------------------------------------------|
A||-------------------------------------------------------------------------------|
F||-------------------------------------------------------------------------------|
C||-0-2-3-2-8-8---0-2-3-2-10-8-10-8-0-2-3-2-8-8---0-2-3-2-0-2-3-2-0-2-3-2-0-2-3-2-|
G||-0-2-3-2-8-8---0-2-3-2-10-8-10-8-0-2-3-2-8-8---0-2-3-2-0-2-3-2-0-2-3-2-0-2-3-2-|
C||-0-2-3-2-8-8---0-2-3-2-10-8-10-8-0-2-3-2-8-8---0-2-3-2-0-2-3-2-0-2-3-2-0-2-3-2-|

D||----------------10108-|
A||-----------10108------|
F||------10108-----------|
C||-10108----------------|
G||----------------------|
C||----------------------|x2

D||------------------------------------------------------------------------10-8-10-8-|
A||----------------------------------------------------10-8-10-8---------------------|
F||--------------------------------10-8-10-8-----------------------------------------|
C||-10-8-10-8-1010810108-10-8-10-8-----------10-8-10-8-----------10-8-10-8-----------|
G||-10-8-10-8------------10-8-10-8-----------10-8-10-8-----------10-8-10-8-----------|
C||-10-8-10-8------------10-8-10-8-----------10-8-10-8-----------10-8-10-8-----------|

D||-------------------------------------------|
A||-------------------------------------------|
F||--------------------------------1010810108-|
C||-10-8-10-8-1010810108-10-8-10-8------------|
G||-10-8-10-8------------10-8-10-8------------|
C||-10-8-10-8------------10-8-10-8------------|

D||------------------------------------------------------------------------1010810108-|
A||----------------------------------------------------10-8-10-8----------------------|
F||-------------------------------1010810108------------------------------------------|
C||-10-8-10-8-10-8-10-8-10-8-10-8------------10-8-10-8-----------10-8-10-8------------|
G||-10-8-10-8-----------10-8-10-8------------10-8-10-8-----------10-8-10-8------------|
C||-10-8-10-8-----------10-8-10-8------------10-8-10-8-----------10-8-10-8------------|

D||-------------------------------------------------------------------------10-8-10-8-|
A||----------------------------------------------------1010810108---------------------|
F||--------------------------------10-8-10-8------------------------------------------|
C||-10-8-10-8-1010810108-10-8-10-8-----------10-8-10-8------------10-8-10-8-----------|
G||-10-8-10-8------------10-8-10-8-----------10-8-10-8------------10-8-10-8-----------|
C||-10-8-10-8------------10-8-10-8-----------10-8-10-8------------10-8-10-8-----------|

D||-------------------------------------------------------------|
A||-------------------------------------------------------------|
F||-------------------------------------------------------------|
C||-------------------------------------------------------------|
G||-331-331-331-331-331-331-331-331-331-331-331-331-3^-3^-3^-3^-|
C||-------------------------------------------------------------|x2
PM|-XXX-XXX-XXX-XXX-XXX-XXX-XXX-XXX-XXX-XXX-XXX-XXX-------------|

D||---------------------------------|
A||---------------------------------|
F||---------------------------------|
C||-0-2-3-2-0-2-3-2-0-2-3-2-0-2-3-2-|
G||-0-2-3-2-0-2-3-2-0-2-3-2-0-2-3-2-|
C||-0-2-3-2-0-2-3-2-0-2-3-2-0-2-3-2-|
Tap to rate this tab
# A B C D E F G H I J K L M N O P Q R S T U V W X Y Z