Song name
# A B C D E F G H I J K L M N O P Q R S T U V W X Y Z

System Of A Down - Toast tab

System A Down - Toast Guitar Tab Ver 1

Artist:	System Of A Down
Album:	Untitled 1995 Demo Tape
Song:	Toast
Year:	1994-1995

Tabbed by Dmitri Poterianski

Version 1.0

Nobody really tabbed this song yet. Probably since it has unconventional harmonies, etc.

IMPORTAT NOTE: Like all the other songs on the 1995 demo tape, the tuning of the
strings is about half-way between Drop C and Drop B. For tabbing purposes, I shall
record it as Drop C (since the tracks that made it past that tape became purely in Drop C).


Time: 4/4
BPM =


Verse 1.

D|--------------------------------|--------------------------------|
A|--------------------------------|--------------------------------|
F|--------------------------------|--------------------------------|
C|--------------------0-0-0-------|0-0-0-0-0---0-0-4-----3-----1---|
G|--------------------0-0-0-------|0-0-0-0-0---0-0-4-----3-----1---|
C|--------------------0-0-0-------|0-0-0-0-0---0-0-4-----3-----1---|


D|--------------------------------|--------------------------------|
A|--------------------------------|--------------------------------|
F|--------------------------------|--------------------------------|
C|0-0-0-0-0-------0-0---0-0-------|0-0-0-0-0---0-0-1-----3-----4---|
G|0-0-0-0-0-------0-0---0-0-------|0-0-0-0-0---0-0-1-----3-----4---|
C|0-0-0-0-0-------0-0---0-0-------|0-0-0-0-0---0-0-1-----3-----4---|


D|--------------------------------|--------------------------------|
A|--------------------------------|--------------------------------|
F|--------------------------------|--------------------------------|
C|0-0-0-0-0-------0-0---0-0-------|0-0-0-0-0---0-0-4-----3-----1---|
G|0-0-0-0-0-------0-0---0-0-------|0-0-0-0-0---0-0-4-----3-----1---|
C|0-0-0-0-0-------0-0---0-0-------|0-0-0-0-0---0-0-4-----3-----1---|



Pre-Chorus. !!!In this part, you hear only the bass. I tabbed it anyways, since we're 
not exactly sure when the guitar plays (bad quality recording).

D|--------------------------------|--------------------------------|
A|--------------------------------|--------------------------------|
F|--------------------------------|--------------------------------|
C|----3-2-------------3-2---------|----3-2-------------3-2---------|
G|3-4-------------3-4-------------|3-4-------------3-4-------------|
C|--------5---------------5-------|--------5---------------5---4---| X3


D|--------------------------------|--------------------------------|
A|--------------------------------|--------------------------------|
F|--------------------------------|--------------------------------|
C|----3-2-------------3-2---------|----3-2-------------3-2---------|
G|3-4-------------3-4-------------|3-4-------------3-4-------------|
C|--------5---4-----------5---4---|--------5---4-----------5---4---|



Chorus.

D|--------------------------------|--------------------------------|
A|--------------------------------|--------------------------------|
F|--------------------------------|--------------------------------|
C|0-0-0-0-5---4---0-0-0-0-5---4---|0-0-0-0-5---4---0-0-0-0-5---4---|
G|0-0-0-0-5---4---0-0-0-0-5---4---|0-0-0-0-5---4---0-0-0-0-5---4---|
C|0-0-0-0-5---4---0-0-0-0-5---4---|0-0-0-0-5---4---0-0-0-0-5---4---| x4

              You Fly,         You Fly,     You got a rugged right!




Pre-verse.

D|--------------------------------|--------------------------------|
A|--------------------------------|--------------------------------|
F|--------------------------------|--------------------------------|
C|0-0-0-0-0-------0-0---0-0-------|0-0-0-0-0---0-0-4-----3-----1---|
G|0-0-0-0-0-------0-0---0-0-------|0-0-0-0-0---0-0-4-----3-----1---|
C|0-0-0-0-0-------0-0---0-0-------|0-0-0-0-0---0-0-4-----3-----1---|

D|--------------------------------|--------------------------------|
A|--------------------------------|--------------------------------|
F|--------------------------------|--------------------------------|
C|0-0-0-0-0---0-0---0---0-0---0-0-|0-0-0-0-0---0-0-1-----3-----4---|
G|0-0-0-0-0---0-0---0---0-0---0-0-|0-0-0-0-0---0-0-1-----3-----4---|
C|0-0-0-0-0---0-0---0---0-0---0-0-|0-0-0-0-0---0-0-1-----3-----4---|




Verse 2.

D|--------------------------------|--------------------------------|
A|--------------------------------|--------------------------------|
F|--------------------------------|--------------------------------|
C|0-0-0-0-0-------0-0---0-0-------|0-0-0-0-0---0-0-1-----3-----4---|
G|0-0-0-0-0-------0-0---0-0-------|0-0-0-0-0---0-0-1-----3-----4---|
C|0-0-0-0-0-------0-0---0-0-------|0-0-0-0-0---0-0-1-----3-----4---|


D|--------------------------------|--------------------------------|
A|--------------------------------|--------------------------------|
F|--------------------------------|--------------------------------|
C|0-0-0-0-0-------0-0---0-0-------|0-0-0-0-0---0-0-4-----3-----1---|
G|0-0-0-0-0-------0-0---0-0-------|0-0-0-0-0---0-0-4-----3-----1---|
C|0-0-0-0-0-------0-0---0-0-------|0-0-0-0-0---0-0-4-----3-----1---|

D|--------------------------------|--------------------------------|
A|--------------------------------|--------------------------------|
F|--------------------------------|--------------------------------|
C|0-0-0-0-0-------0-0---0-0-------|0-0-0-0-0---0-0-1-----3-----4---|
G|0-0-0-0-0-------0-0---0-0-------|0-0-0-0-0---0-0-1-----3-----4---|
C|0-0-0-0-0-------0-0---0-0-------|0-0-0-0-0---0-0-1-----3-----4---|


D|--------------------------------|--------------------------------|
A|--------------------------------|--------------------------------|
F|--------------------------------|--------------------------------|
C|0-0-0-0-0-------0-0---0-0-------|0-0-0-0-0---0-0-4-----3-----1---|
G|0-0-0-0-0-------0-0---0-0-------|0-0-0-0-0---0-0-4-----3-----1---|
C|0-0-0-0-0-------0-0---0-0-------|0-0-0-0-0---0-0-4-----3-----1---|




Pre-Chorus. (Go back to see it)




Chorus. (Go back to see it)




Creepy Part. This is the part with the dirty keyboard chords.
The only times the guitar plays there, it plays the same thing:

D|--------------------------------|
A|--------------------------------|
F|--------------------------------|
C|0-------8-------0-------8-------|
G|0-------8-------0-------8-------|
C|0-------8-------0-------8-------| x4, wait, x4


D|--------------------------------|
A|--------------------------------|
F|--------------------------------|
C|0-0-0-0-8-8-8-8-0-0-0-0-8-8-8-8-|
G|0-0-0-0-8-8-8-8-0-0-0-0-8-8-8-8-|
C|0-0-0-0-8-8-8-8-0-0-0-0-8-8-8-8-| x4, then go into chorus




Chorus. (Go back to see it)
Tap to rate this tab
# A B C D E F G H I J K L M N O P Q R S T U V W X Y Z