Song name
# A B C D E F G H I J K L M N O P Q R S T U V W X Y Z

System Of A Down - Ginger Aka Missing Song Demo tab

-------------------------------------------------------------------------------
			     Ginger aka Missing song ( demo ) - System of a down
-------------------------------------------------------------------------------
Tabbed by: Biskizz	
Email: buzza11@live.it

Tuning: Standard

e|---------------------------------------------------------------------------|
B|-------------------------------8--7--4------8--7--4-----8--7--10-11--------|
G|----------------------------7------------7-----------7---------------------|
D|-3--5---5---5---3---3--7---------------------------------------------------|
A|-3--5---5---5---3---3--7---------------------------------------------------|
E|-3--5---5---5---3---3--7---------------------------------------------------|

e|----------------------3-----3----------------------------------------------|
B|11/13--10--6---8/10------4-----3----------16--------15------13--------11---|
G|-------------------------------------12--------10-------8--------7---------|
D|---------------------------------------------------------------------------|
A|---------------------------------------------------------------------------|
E|---------------------------------------------------------------------------|

e|---------------------------------------------------------------------------|
B|-------16--------15-------13-------11--------------------------------------|
G|--12--------10--------8--------7----------7--8b--9---7---------------------|
D|---------------------------------------------------------------------------|
A|---------------------------------------------------------------------------|
E|---------------------------------------------------------------------------|

After this there is a solo that is too difficult to tab because the audio quality
of the song is really bad.
Then the final solo:

e|---------------------------------------------------------------------------|
B|---9/12-----9/12----9/12----7/10----7/10----7/10----5/8----5/8----5/8------|
G|-9--------9-------9-------7-------7-------7-------5------5------5----------|
D|---------------------------------------------------------------------------|
A|---------------------------------------------------------------------------|
E|---------------------------------------------------------------------------|

e|---------------------------------------------------------------------------|
B|---3/6----3/6----3/6----3-----12-------12-------12-------10------8---------|
G|-3------3------3------3----------12/9-----12/9-----12/9-----9/7----7/5-----|
D|---------------------------------------------------------------------------|
A|---------------------------------------------------------------------------|
E|---------------------------------------------------------------------------|

e|---------------------------------------------------------------------------|
B|--8------8------6------6------6--------------------------------------------|
G|----7/5----7/5----5/3----5/3----5/3----------------------------------------|
D|---------------------------------------------------------------------------|
A|---------------------------------------------------------------------------|
E|---------------------------------------------------------------------------|
Tap to rate this tab
# A B C D E F G H I J K L M N O P Q R S T U V W X Y Z