Song name
# A B C D E F G H I J K L M N O P Q R S T U V W X Y Z

System Of A Down - Mind tab

System Of A Down
Mind


D|------------------------------------------------------|
A|------------------8--7~----------8--7~----------------|
F|----------------5----5~--------5----5~----------------|
C|------------------------------------------------------|
G|------------------------------------------------------|
C|------------------------------------------------------|


D|---------------5--------------5--------------------------|
A|------8----7-8------------7-8---8-7--------8-7~----------|
F|----5----5--------------5-----------7-5----------7-5~----|
C|---------------------------------------------------------|
G|---------------------------------------------------------|
C|---------------------------------------------------------|


D|----------5--------------5--------------------------|
A|------7-8------------7-8---8-7--------8-7~----------|
F|----5--------------5-----------7-5----------7-5~----|
C|----------------------------------------------------|
G|----------------------------------------------------|
C|----------------------------------------------------|


D|--------------------------------------------------------------|
A|------8---7~------8---7~------8---7------------8---7----------|
F|----5---5-5~----5---5-5~----5---5----7--5----5---5----7--5----|
C|--------------------------------------------------------------|
G|--------------------------------------------------------------|
C|--------------------------------------------------------------|

 x2   P.M............................................................................
D|---------------------------------------------------------------------------------------|
A|----8---7---8---7---8---7---8---7---8---7---8---7---8---7---8---7---8---7---8---7------|
F|------5---5---5---5---5---5---5---5---5---5---5---5---5---5---5---5---5---5---5---5----|
C|---------------------------------------------------------------------------------------|
G|---------------------------------------------------------------------------------------|
C|---------------------------------------------------------------------------------------|

      P.M..............................
D|-----------------------------------------|
A|----8----7--7--8--8--7--7--8--8--7--7----|
F|------5--5--5--5--5--5--5--5--5--5--5----|
C|-----------------------------------------|
G|-----------------------------------------|
C|-----------------------------------------|

      P.M.
D|--------------------------------|
A|----8--8--8--8--8--8---7--------|
F|----5--5--5--5--5--5---5--------|
C|--------------------------------|
G|--------------------------------|
C|--------------------------------|


D|--------------------------------------|
A|--------------------------------------|
F|--------------------------------------|
C|--0-0-0----0-0-0----0-0-0----0-0-0----|
G|--0-0-0----0-0-0----0-0-0----0-0-0----|
C|--0-0-0----0-0-0----0-0-0----0-0-0----|

 x2                  P.M....                   P.M..
D|------------------------------------------------------|
A|------------------------------------------------------|
F|------------------------------------------------------|
C|--0----1-3----0----3-2-1-0--0----1-3----0----3-2-1----|
G|--0----1-3----0----3-2-1-0--0----1-3----0----3-2-1----|
C|--0----1-3----0----3-2-1-0--0----1-3----0----3-2-1----|


D|-----------------------------------------------------14----|
A|-----------12~~~---------12~~~---------12~~~---------------|
F|----12~~~---------12~~~---------12~~~---------12~~~--------|
C|-----------------------------------------------------------|
G|-----------------------------------------------------------|
C|-----------------------------------------------------------|


D|------------------------------------------------------------------------------------------------|
A|-----------12~~~---------12~~~--12b13-----15--13-----15--13-----15--13-----15--13-----15--13----|
F|----12~~~---------12~~~-------------------------------------------------------------------------|
C|------------------------------------------------------------------------------------------------|
G|------------------------------------------------------------------------------------------------|
C|------------------------------------------------------------------------------------------------|

 x4                  P.M....                   P.M..
D|------------------------------------------------------|
A|------------------------------------------------------|
F|------------------------------------------------------|
C|--0----1-3----0----3-2-1-0--0----1-3----0----3-2-1----|
G|--0----1-3----0----3-2-1-0--0----1-3----0----3-2-1----|
C|--0----1-3----0----3-2-1-0--0----1-3----0----3-2-1----|

......free thinkers are dangerous......

 x4 P.M.........      x1
D|--------------------|---------|
A|--------------------|---------|
F|--------------------|---------|
C|---------------6-6--|--6------|
G|---------------6-6--|--6------|
C|--600500600500-6-6--|--6------|

 x1
D|------------------------|
A|------------------------|
F|------------------------|
C|--7-6-7-6-7-6-7-6--7-7--|
G|--7-6-7-6-7-6-7-6--7-7--|
C|--7-6-7-6-7-6-7-6--7-7--|

 x3
D|-------------------------|
A|-------------------------|
F|-------------------------|
C|--7-6-7-6-7-6-77-6--7-7--|
G|--7-6-7-6-7-6-77-6--7-7--|
C|--7-6-7-6-7-6-77-6--7-7--|

    P.M...           P.M...           P.M...           P.M...
D|-----------------------------------------------------------------------|
A|-----------------------------------------------------------------------|
F|-----------------------------------------------------------------------|
C|--300200---0-0-0---300200---0-0-0---300200---0-0-0---300200---0-0-0----|
G|--300200---0-0-0---300200---0-0-0---300200---0-0-0---300200---0-0-0----|
C|--300200---0-0-0---300200---0-0-0---300200---0-0-0---300200---0-0-0----|

 x2                  P.M....                   P.M..
D|------------------------------------------------------|
A|------------------------------------------------------|
F|------------------------------------------------------|
C|--0----1-3----0----3-2-1-0--0----1-3----0----3-2-1----|
G|--0----1-3----0----3-2-1-0--0----1-3----0----3-2-1----|
C|--0----1-3----0----3-2-1-0--0----1-3----0----3-2-1----|


D|------------------------------------------------------------------|
A|------------12--12----------12--12----------12--12----------12----|
F|----12--12----------12--12----------12--12----------12--12--------|
C|------------------------------------------------------------------|
G|------------------------------------------------------------------|
C|------------------------------------------------------------------|


D|----------------------------------------------------------------------------|
A|----------12--12----------12--10--12--10--12--10--12--10--12--10--12--10----|
F|--12--12----------12--12----------------------------------------------------|
C|----------------------------------------------------------------------------|
G|----------------------------------------------------------------------------|
C|----------------------------------------------------------------------------|


D|----------------------------------------------------------------------------------------------------|
A|-12-10-12-10-12-10-12-10-12-10-12-10-12-10-12-10-12-10-12-10-12-10-12-10-12-10-12-10-12-10-12-10----|
F|----------------------------------------------------------------------------------------------------|
C|----------------------------------------------------------------------------------------------------|
G|----------------------------------------------------------------------------------------------------|
C|----------------------------------------------------------------------------------------------------|

 x4                  P.M....                   P.M..
D|------------------------------------------------------|
A|------------------------------------------------------|
F|------------------------------------------------------|
C|--0----1-3----0----3-2-1-0--0----1-3----0----3-2-1----|
G|--0----1-3----0----3-2-1-0--0----1-3----0----3-2-1----|
C|--0----1-3----0----3-2-1-0--0----1-3----0----3-2-1----|

......free thinkers are dangerous......

 x4 P.M.........      x1
D|--------------------|---------|
A|--------------------|---------|
F|--------------------|---------|
C|---------------6-6--|--6------|
G|---------------6-6--|--6------|
C|--600500600500-6-6--|--6------|

 x1
D|------------------------|
A|------------------------|
F|------------------------|
C|--7-6-7-6-7-6-7-6--7-7--|
G|--7-6-7-6-7-6-7-6--7-7--|
C|--7-6-7-6-7-6-7-6--7-7--|

 x3
D|--------------------------|
A|--------------------------|
F|--------------------------|
C|--7-6-7-6-7-66-77-6--7-7--|
G|--7-6-7-6-7-66-77-6--7-7--|
C|--7-6-7-6-7-66-77-6--7-7--|

 x1
D|------------------------|
A|------------------------|
F|------------------------|
C|--7-6-7-6-7-6-7-6--7-7--|
G|--7-6-7-6-7-6-7-6--7-7--|
C|--7-6-7-6-7-6-7-6--7-7--|

 x3
D|-------------------------|
A|-------------------------|
F|-------------------------|
C|--7-6-7-6-7-6-77-6--7-7--|
G|--7-6-7-6-7-6-77-6--7-7--|
C|--7-6-7-6-7-6-77-6--7-7--|

 x1 P.M.................
D|------------------------|
A|------------------------|
F|------------------------|
C|------------------------|
G|------------------------|
C|--7-6-7-6-7-6-7-6--7-7--|

 x2 P.M..................
D|-------------------------|
A|-------------------------|
F|-------------------------|
C|-------------------------|
G|-------------------------|
C|--7-6-7-6-7-6-77-6--7-7--|

 x1 P.M..................
D|-------------------------|
A|-------------------------|
F|-------------------------|
C|-------------------------|
G|-------------------------|
C|--7-6-7-6-7-6-77-6--7-6--|

    P.M................................................
D|---------------------------------------------------------|
A|---------------------------------------------------------|
F|---------------------------------------------------------|
C|---------------------------------------------------------|
G|---------------------------------------------------------|
C|--7--6---7--6----7---6----7---6-----7----6-----7----6----|

    P.M.........................................
D|------------------------------------------------|
A|------------------------------------------------|
F|------------------------------------------------|
C|--7-6-7-6-7-6-7-7-6--7-7--7-6-7-6-7-6-7-7-6--7--|
G|--7-6-7-6-7-6-7-7-6--7-7--7-6-7-6-7-6-7-7-6--7--|
C|--7-6-7-6-7-6-7-7-6--7-7--7-6-7-6-7-6-7-7-6--7--|

 x1
D|------------------------|
A|------------------------|
F|------------------------|
C|--7-6-7-6-7-6-7-6--7-7--|
G|--7-6-7-6-7-6-7-6--7-7--|
C|--7-6-7-6-7-6-7-6--7-7--|

 x3
D|-------------------------|
A|-------------------------|
F|-------------------------|
C|--7-6-7-6-7-6-77-6--7-7--|
G|--7-6-7-6-7-6-77-6--7-7--|
C|--7-6-7-6-7-6-77-6--7-7--|

 x1
D|------------------------|
A|------------------------|
F|------------------------|
C|--7-6-7-6-7-6-7-6--7-7--|
G|--7-6-7-6-7-6-7-6--7-7--|
C|--7-6-7-6-7-6-7-6--7-7--|

 x3
D|-------------------------|
A|-------------------------|
F|-------------------------|
C|--7-6-7-6-7-6-77-6--7-7--|
G|--7-6-7-6-7-6-77-6--7-7--|
C|--7-6-7-6-7-6-77-6--7-7--|

DIE

 x4
D|-------------------------------------------------|
A|-------------------------------------------------|
F|-------------------------------------------------|
C|-------------------------------------------------|
G|----------------5---5---4---4---3----------------|
C|--------------------------------0----------------|




| /  slide up
| \  slide down
| h  hammer-on
| p  pull-off
| ~  vibrato
| +  harmonic
| x  mute note
| b  bend
| r  release bend
| .  palm mute
===========================================================================
R.G.P.
Tap to rate this tab
# A B C D E F G H I J K L M N O P Q R S T U V W X Y Z