Song name
# A B C D E F G H I J K L M N O P Q R S T U V W X Y Z

System Of A Down - Deer Dance tab

-------------------------------------------------------------------------------
                             DEER DANCE - System Of a Down
-------------------------------------------------------------------------------



Tuning: C G C F A D



           
************************************

| /   slide up
| \   slide down
| h   hammer-on
| p   pull-off
| ~   vibrato
| +   harmonic
| x   Mute note
| tr# Trem pick to next note and how many time to trem 
| b   Bend
| pb  Pre-bend
| br  Bend release
| pbr Pre-bend release
| brb Bend release bend

************************************





INTRO (LIGHTLY PALM MUTED)
D|---------------------------------------------------------------------------|
A|---------------------------------------------------------------------------|
F|--TRIPLETS-----------------------------------------------------------------|
C|---------------------------------------------------------------------------|
G|--1-0-0---1-0-0---1-0-0---1---1-0-0---1-0-0---1-0-0---1--------------------|
C|--1-0-0---1-0-0---1-0-0---1---1-0-0---1-0-0---1-0-0---1--------------------|
    
D|---------------------------------------------------------------------------|
A|---------------------------------------------------------------------------|
F|--TRIPLETS-----------------------------------------------------------------|
C|---------------------------------------------------------------------------|
G|--1-0-0---1-0-0---1-0-0---1---1-0-0---1-0-0---1-0-0---1--------------------|
C|--1-0-0---1-0-0---1-0-0---1---1-0-0---1-0-0---1-0-0---1--------------------|

D|---------------------------------------------------------------------------|
A|---------------------------------------------------------------------------|
F|---------------------------------------------------------------------------|
C|---------------------------------------------------------------------------|
G|--1-0-1-0-1-0-1-0-1-0-1-0-1-0-1-0-1-0-1-0-1-0-1---1-0-1-0-1-0-1------------|
C|--1-0-1-0-1-0-1-0-1-0-1-0-1-0-1-0-1-0-1-0-1-0-1---1-0-1-0-1-0-1------------|


VERSE 
D|---------------------------------------------------------------------------|
A|---------------------------------------------------------------------------|
F|--------------------+7----------------------+7-----------------------+7----|
C|---------------------------------------------------------------------------|
G|---------------------------------------------------------------------------|
C|--5/8---3/7---1/5---------5/8---3/7---1/5---------5/8---3/7---1/5----------|


D|---------------------------------------------------------------------------|
A|---------------------------------------------------------------------------|
F|--------------------+7----------------------+7-----------------------+7----|
C|---------------------------------------------------------------------------|
G|---------------------------------------------------------------------------|
C|--5/8---3/7---1/5---------5/8---3/7---1/5---------5/8---3/7---1/5----------|

D|---------------------------------------------------------------------------|
A|---------------------------------------------------------------------------|
F|-----------------------------------------------------------------------+7--|
C|---------------------------------------------------------------------------|
G|---------------------------------------------------------------------------|
C|--5(tr8)8---3(tr8)7---1(tr8)5---0(tr8)---5(tr8)8---3(tr8)7---1(tr8)5-------|

D|---------------------------------------------------------------------------|
A|---------------------------------------------------------------------------|
F|-----------------------------------------------------------------------+7--|
C|---------------------------------------------------------------------------|
G|---------------------------------------------------------------------------|
C|--5(tr8)8---3(tr8)7---1(tr8)5---0(tr8)---5(tr8)8---3(tr8)7---1(tr8)5-------|


CHORUS (LIGHTLY PALM MUTED)
D|---------------------------------------------------------------------------|
A|---------------------------------------------------------------------------|
F|---------------------------------------------------------------------------|
C|---------------------------------------------------------------------------|
G|--1-0-0---1-0-0---1-0-0---1---1-0-0---1-0-0---1-0-0---1--------------------|
C|--1-0-0---1-0-0---1-0-0---1---1-0-0---1-0-0---1-0-0---1--------------------|

D|---------------------------------------------------------------------------|
A|---------------------------------------------------------------------------|
F|---------------------------------------------------------------------------|
C|---------------------------------------------------------------------------|
G|--1-0-0---1-0-0---1-0-0---1---1-0-0---1-0-0---1-0-0---1--------------------|
C|--1-0-0---1-0-0---1-0-0---1---1-0-0---1-0-0---1-0-0---1--------------------|

D|---------------------------------------------------------------------------|
A|---------------------------------------------------------------------------|
F|---------------------------------------------------------------------------|
C|---------------------------------------------------------------------------|
G|--1-0-1-0-1-0-1-0-1-0-1-0-1-0-1-0-1-0-1-0-1-0-1---1-0-1-0-1-0-1------------|
C|--1-0-1-0-1-0-1-0-1-0-1-0-1-0-1-0-1-0-1-0-1-0-1---1-0-1-0-1-0-1------------|


VERSE 2
D|---------------------------------------------------------------------------|
A|---------------------------------------------------------------------------|
F|--------------------+7----------------------+7-----------------------+7----|
C|---------------------------------------------------------------------------|
G|---------------------------------------------------------------------------|
C|--5/8---3/7---1/5---------5/8---3/7---1/5---------5/8---3/7---1/5----------|


D|---------------------------------------------------------------------------|
A|---------------------------------------------------------------------------|
F|--------------------+7----------------------+7-----------------------+7----|
C|---------------------------------------------------------------------------|
G|---------------------------------------------------------------------------|
C|--5/8---3/7---1/5---------5/8---3/7---1/5---------5/8---3/7---1/5----------|

D|---------------------------------------------------------------------------|
A|---------------------------------------------------------------------------|
F|-----------------------------------------------------------------------+7--|
C|---------------------------------------------------------------------------|
G|---------------------------------------------------------------------------|
C|--5(tr8)8---3(tr8)7---1(tr8)5---0(tr8)---5(tr8)8---3(tr8)7---1(tr8)5-------|

D|---------------------------------------------------------------------------|
A|---------------------------------------------------------------------------|
F|-----------------------------------------------------------------------+7--|
C|---------------------------------------------------------------------------|
G|---------------------------------------------------------------------------|
C|--5(tr8)8---3(tr8)7---1(tr8)5---0(tr8)---5(tr8)8---3(tr8)7---1(tr8)5-------|


CHORUS 2 (LIGHTLY PALM MUTED)
D|---------------------------------------------------------------------------|
A|---------------------------------------------------------------------------|
F|---------------------------------------------------------------------------|
C|---------------------------------------------------------------------------|
G|--1-0-0---1-0-0---1-0-0---1---1-0-0---1-0-0---1-0-0---1--------------------|
C|--1-0-0---1-0-0---1-0-0---1---1-0-0---1-0-0---1-0-0---1--------------------|

D|---------------------------------------------------------------------------|
A|---------------------------------------------------------------------------|
F|---------------------------------------------------------------------------|
C|---------------------------------------------------------------------------|
G|--1-0-0---1-0-0---1-0-0---1---1-0-0---1-0-0---1-0-0---1--------------------|
C|--1-0-0---1-0-0---1-0-0---1---1-0-0---1-0-0---1-0-0---1--------------------|

D|---------------------------------------------------------------------------|
A|---------------------------------------------------------------------------|
F|---------------------------------------------------------------------------|
C|---------------------------------------------------------------------------|
G|--1-0-1-0-1-0-1-0-1-0-1-0-1-0-1-0-1-0-1-0-1-0-1---1-0-1-0-1-0-1------------|
C|--1-0-1-0-1-0-1-0-1-0-1-0-1-0-1-0-1-0-1-0-1-0-1---1-0-1-0-1-0-1----x5------|


BRIDGE (PALM MUTED)
D|-------6-5-------8-5-------6-5------8-5-------6-5-------8-5----------------|
A|-----------6---------6---------6--------6---------6---------6--------------|
F|-------------7---------7---------7--------7---------7---------7------------|
C|---------------------------------------------------------------------------|
G|---------------------------------------------------------------------------|
C|---------------------------------------------------------------------------|

D|-------6-5-------8-5-------6-5------8-5-------6-5-------8-5----------------|
A|-----------6---------6---------6--------6---------6---------6--------------|
F|-------------7---------7---------7--------7---------7---------7------------|
C|---------------------------------------------------------------------------|
G|---------------------------------------------------------------------------|
C|---------------------------------------------------------------------------|

D|-------6-5-------8-5-------6-5------8-5-------6-5-------8-5----------------|
A|-----------6---------6---------6--------6---------6---------6--------------|
F|-------------7---------7---------7--------7---------7---------7------------|
C|---------------------------------------------------------------------------|
G|---------------------------------------------------------------------------|
C|---------------------------------------------------------------------------|

SOLO (TREM PICKING)
D|---------TREM-PICK---->--3-3-3-3-3-5-5-5-5-6-6-6-6-8-8-8-8-10-10-10-10-----|
A|---------------------------------------------------------------------------|
F|--3-2-0-3-2-0-3-2-3-2-0----------------------------------------------------|
C|---------------------------------------------------------------------------|
G|---------------------------------------------------------------------------|
C|---------------------------------------------------------------------------|

D|--11-11-11-11-10-10-10-10-8-8-8-8-6-6-6-6-5-5-5-5-6-5-6-5-6-5-6-5----------|
A|---------------------------------------------------------------------------|
F|---------------------------------------------------------------------------|
C|---------------------------------------------------------------------------|
G|---------------------------------------------------------------------------|
C|---------------------------------------------------------------------------|


BRIDGE 2 (PALM MUTED)
D|-------6-5-------8-5-------6-5------8-5-------6-5-------8-5----------------|
A|-----------6---------6---------6--------6---------6---------6--------------|
F|-------------7---------7---------7--------7---------7---------7------------|
C|---------------------------------------------------------------------------|
G|---------------------------------------------------------------------------|
C|---------------------------------------------------------------------------|


SOLO 2 (TREM PICKING)
D|--TREM-PICK--->----3-3-3-3-3-5-5-5-5-6-6-6-6-8-8-8-8-10-10-10-10-----------|
A|---------------------------------------------------------------------------|
F|---------------------------------------------------------------------------|
C|---------------------------------------------------------------------------|
G|---------------------------------------------------------------------------|
C|---------------------------------------------------------------------------|

D|--11-11-11-11-10-10-10-10-8-8-8-8-6-6-6-6-5-5-5-5-6-5-6-5-6-5-6-5----------|
A|---------------------------------------------------------------------------|
F|---------------------------------------------------------------------------|
C|---------------------------------------------------------------------------|
G|---------------------------------------------------------------------------|
C|---------------------------------------------------------------------------|


BRIDGE 3
D|--6-5-------8-5---------6-6-6-6-5-5-5-5-6-6-6-6-5-5-5-5-6-6-6-6-5-5-5-5----|
A|------6---------6-------6-6-6-6-6-6-6-6-6-6-6-6-6-6-6-6-6-6-6-6-6-6-6-6----|
F|--------7---------7--------------------------------------------------------|
C|---------------------------------------------------------------------------|
G|---------------------------------------------------------------------------|
C|---------------------------------------------------------------------------|

D|--6-6-6-6-5-5-5-5----------------------------------------------------------|
A|--6-6-6-6-6-6-6-6----------------------------------------------------------|
F|---------------------------------------------------------------------------|
C|---------------------------------------------------------------------------|
G|---------------------------------------------------------------------------|
C|---------------------------------------------------------------------------|

CHORUS 3 (LIGHTLY PALM MUTED)
D|---------------------------------------------------------------------------|
A|---------------------------------------------------------------------------|
F|---------------------------------------------------------------------------|
C|---------------------------------------------------------------------------|
G|--1-0-0---1-0-0---1-0-0---1---1-0-0---1-0-0---1-0-0---1--------------------|
C|--1-0-0---1-0-0---1-0-0---1---1-0-0---1-0-0---1-0-0---1--------------------|

D|---------------------------------------------------------------------------|
A|---------------------------------------------------------------------------|
F|---------------------------------------------------------------------------|
C|---------------------------------------------------------------------------|
G|--1-0-0---1-0-0---1-0-0---1---1-0-0---1-0-0---1-0-0---1--------------------|
C|--1-0-0---1-0-0---1-0-0---1---1-0-0---1-0-0---1-0-0---1--------------------|

D|---------------------------------------------------------------------------|
A|---------------------------------------------------------------------------|
F|---------------------------------------------------------------------------|
C|---------------------------------------------------------------------------|
G|--1-0-1-0-1-0-1-0-1-0-1-0-1-0-1-0-1-0-1-0-1-0-1---1-0-1-0-1-0-1------------|
C|--1-0-1-0-1-0-1-0-1-0-1-0-1-0-1-0-1-0-1-0-1-0-1---1-0-1-0-1-0-1------------|


OUTRO (NOT PALM MUTED)
D|---------------------------------------------------------------------------|
A|---------------------------------------------------------------------------|
F|---------------------------------------------------------------------------|
C|---------------------------------------------------------------------------|
G|--1-0-1-0-1-0-1-0-1-0-1-0-1-0-1-----1-0-1-0-1-0-1-0-1-0-1-0-1-0-1----------|
C|--1-0-1-0-1-0-1-0-1-0-1-0-1-0-1-----1-0-1-0-1-0-1-0-1-0-1-0-1-0-1----------|

D|---------------------------------------------------------------------------|
A|---------------------------------------------------------------------------|
F|---------------------------------------------------------------------------|
C|---------------------------------------------------------------------------|
G|--1-0-1-0-1-0-1-0-1-0-1-0-1-0-1--------------------------------------------|
C|--1-0-1-0-1-0-1-0-1-0-1-0-1-0-1--------------------------------------------|

D|---------------------------------------------------------------------------|
A|---------------------------------------------------------------------------|
F|--TRIPLETS-----------------------------------------------------------------|
C|---------------------------------------------------------------------------|
G|--1-0-0---1-0-0---1-0-0---1---1-0-0---1-0-0---1-0-0---1-0-0---1------------|
C|--1-0-0---1-0-0---1-0-0---1---1-0-0---1-0-0---1-0-0---1-0-0---1------------|



**************************************************************************************


MY VERSION OF "INTRO" "CHORUS" AND "OUTRO"


INTRO (LIGHTLY PALM MUTED)
D|---------------------------------------------------------------------------|
A|---------------------------------------------------------------------------|
F|--TRIPLETS-----------------------------------------------------------------|
C|---------------------------------------------------------------------------|
G|--1-0-0---1-0-0---1-0-0---1---1-0-0---1-0-0---1-0-0---1--------------------|
C|--1-0-0---1-0-0---1-0-0---1---1-0-0---1-0-0---1-0-0---1--------------------|
    
D|---------------------------------------------------------------------------|
A|---------------------------------------------------------------------------|
F|--TRIPLETS-----------------------------------------------------------------|
C|---------------------------------------------------------------------------|
G|--1-0-0---1-0-0---1-0-0---1---1-0-0---1-0-0---1-0-0---1--------------------|
C|--1-0-0---1-0-0---1-0-0---1---1-0-0---1-0-0---1-0-0---1--------------------|

D|---------------------------------------------------------------------------|
A|---------------------------------------------------------------------------|
F|---------------------------------------------------------------------------|
C|---------------------------------------------------------------------------|
G|--0-0-1-0-0-0-1-0-0-0-1-0-0-0-1-0-0-0-1-0-0-0-1-----0-0-1-0-0-0-1----------|
C|--0-0-1-0-0-0-1-0-0-0-1-0-0-0-1-0-0-0-1-0-0-0-1-----0-0-1-0-0-0-1----------|



CHORUS (LIGHTLY PALM MUTED)
D|---------------------------------------------------------------------------|
A|---------------------------------------------------------------------------|
F|--TRIPLETS-----------------------------------------------------------------|
C|---------------------------------------------------------------------------|
G|--1-0-0---1-0-0---1-0-0---1---1-0-0---1-0-0---1-0-0---1--------------------|
C|--1-0-0---1-0-0---1-0-0---1---1-0-0---1-0-0---1-0-0---1--------------------|

D|---------------------------------------------------------------------------|
A|---------------------------------------------------------------------------|
F|---TRIPLETS----------------------------------------------------------------|
C|---------------------------------------------------------------------------|
G|--1-0-0---1-0-0---1-0-0---1---1-0-0---1-0-0---1-0-0---1--------------------|
C|--1-0-0---1-0-0---1-0-0---1---1-0-0---1-0-0---1-0-0---1--------------------|

D|---------------------------------------------------------------------------|
A|---------------------------------------------------------------------------|
F|---------------------------------------------------------------------------|
C|---------------------------------------------------------------------------|
G|--0-0-1-0-0-0-1-0-0-0-1-0-0-0-1-0-0-0-1-0-0-0-1-----0-0-1-0-0-0-1----------|
C|--0-0-1-0-0-0-1-0-0-0-1-0-0-0-1-0-0-0-1-0-0-0-1-----0-0-1-0-0-0-1----------|


OUTRO (NOT PALM MUTED)
D|---------------------------------------------------------------------------|
A|---------------------------------------------------------------------------|
F|---------------------------------------------------------------------------|
C|---------------------------------------------------------------------------|
G|--0-0-0-0-1-0-0-0-0-0-0-0-1-0-1------0-0-0-0-1-0-0-0-0-0-0-0-1-0-1---------|
C|--0-0-0-0-1-0-0-0-0-0-0-0-1-0-1------0-0-0-0-1-0-0-0-0-0-0-0-1-0-1---------|

D|---------------------------------------------------------------------------|
A|---------------------------------------------------------------------------|
F|---------------------------------------------------------------------------|
C|---------------------------------------------------------------------------|
G|--0-0-0-0-1-0-0-0-0-0-0-0-1-0-1--------------------------------------------|
C|--0-0-0-0-1-0-0-0-0-0-0-0-1-0-1--------------------------------------------|

D|---------------------------------------------------------------------------|
A|---------------------------------------------------------------------------|
F|---------------------------------------------------------------------------|
C|---------------------------------------------------------------------------|
G|--1-0-1-0-1-0-1-0-1-0-1-0-1-0-1--------------------------------------------|
C|--1-0-1-0-1-0-1-0-1-0-1-0-1-0-1--------------------------------------------|





LET ME KNOW IF ANYTHING NEEDS TO BE CHANGED OR FIXED
Tap to rate this tab
 
# A B C D E F G H I J K L M N O P Q R S T U V W X Y Z