Guitaretab - guitar tabs
Song name
# A B C D E F G H I J K L M N O P Q R S T U V W X Y Z

System Of A Down - Thetawaves tab

Tuning: Drop D down 1 step, aka Drop C (C,G,C,F,A,D)

This is 100%, I made this because I found some flaws in all the others.

Intro
|-------------------------------------------------------|
|-------------------------------------------------------|
|-------------------------------------------------------|
|-------------------------------------------------------|
|-11-0-11-0-11-0-11-0-11-0-11-0-11-0-12-0-12-0-12-0-12-0|
|-11-0-11-0-11-0-11-0-11-0-11-0-11-0-12-0-12-0-12-0-12-0|
PM.. . .. . .. . .. . .. . .. . .. . .. . .. . .. . .. .

|------------------------------------------------------------------|
|------------------------------------------------------------------|
|------------------------------------------------------------------|
|------------------------(17)(17)-------(17)(17)-------------------|
|-5-0-5-0-5-0-5-0-11-0-11--------11-0-11--------12-0-12-0-12-0-12-0|
|-5-0-5-0-5-0-5-0-11-0-11--------11-0-11--------12-0-12-0-12-0-12-0|
PM. . . . . . . . .. . ..        .. . ..        .. . .. . .. . .. .

|----------------|
|----------------|
|----------------|
|----------------|
|-5-0-5-0-5-0-5-0|
|-5-0-5-0-5-0-5-0|
PM. . . . . . . .

|-------------------------------------------------------|
|-------------------------------------------------------|
|-------------------------------------------------------|
|-------------------------------------------------------|
|-11-0-11-0-11-0-11-0-11-0-11-0-11-0-12-0-12-0-12-0-12-0|
|-11-0-11-0-11-0-11-0-11-0-11-0-11-0-12-0-12-0-12-0-12-0|
PM.. . .. . .. . .. . .. . .. . .. . .. . .. . .. . .. .

|------------------------------------------------------------------|
|------------------------------------------------------------------|
|------------------------------------------------------------------|
|------------------------(17)(17)-------(17)(17)-------------------|
|-5-0-5-0-5-0-5-0-11-0-11--------11-0-11--------12-0-12-0-12-0-12-0|
|-5-0-5-0-5-0-5-0-11-0-11--------11-0-11--------12-0-12-0-12-0-12-0|
PM. . . . . . . . .. . ..        .. . ..        .. . .. . .. . .. .

|----------------|
|----------------|
|----------------|
|----------------|
|-5-0-5-0-5-0-5-0|
|-5-0-5-0-5-0-5-0|
PM. . . . . . . .

Verse

|---------------------------------------------------------------|
|---------------------------------------------------------------|
|---------------------------------------(4)-(4)--------(4)-(4)--|
|---------------------------------------------------------------|
|-5-5-5-5-5-5-7-5-5-5-5-5-5-5-7-5--4--4-----------4--4----------|
|-5-5-5-5-5-5-7-5-5-5-5-5-5-5-7-5--4--4-----------4--4----------|  
PM. . . . . . . . . . . . . . . .  .  .           .  .
 
|------------------------------------------------------------|
|------------------------------------------------------------|
|------------------------------------(4)---(4)---(4)---(4)---|
|------------------------------------------------------------|
|-5-5-5-5-5-5-7-5-5-5-5-5-5-5-7-5--4-----4-----4-----4-------|
|-5-5-5-5-5-5-7-5-5-5-5-5-5-5-7-5--4-----4-----4-----4-------|
PM. . . . . . . . . . . . . . . .  .     .     .     .   

|---------------------------------------------------------------|
|---------------------------------------------------------------|
|---------------------------------------(4)-(4)--------(4)-(4)--|
|---------------------------------------------------------------|
|-5-5-5-5-5-5-7-5-5-5-5-5-5-5-7-5--4--4-----------4--4----------|
|-5-5-5-5-5-5-7-5-5-5-5-5-5-5-7-5--4--4-----------4--4----------|  
PM. . . . . . . . . . . . . . . .  .  .           .  .
 
|------------------------------------------------------------|
|------------------------------------------------------------|
|------------------------------------(4)---(4)---(4)---(4)---|
|------------------------------------------------------------|
|-5-5-5-5-5-5-7-5-5-5-5-5-5-5-7-5--4-----4-----4-----4-------|
|-5-5-5-5-5-5-7-5-5-5-5-5-5-5-7-5--4-----4-----4-----4-------|
PM. . . . . . . . . . . . . . . .  .     .     .     .          

Chorus

|--------------------------------------------------|
|--------------------------------------------------|
|--------------------------------------------------|
|--------------------------------------------------|
|-5--5-5-0--0-0-5--5-5-0--0-0-4--4-4--4-4--4-4--4-4|
|-5--5-5-0--0-0-5--5-5-0--0-0-4--4-4--4-4--4-4--4-4|

|---------------------------------------------|
|---------------------------------------------|
|---------------------------------------------|
|---------------------------------------------|
|-5--5-5-0--0-0-5--5-5-0--0-0-4--5--4--7--5--4|
|-5--5-5-0--0-0-5--5-5-0--0-0-4--5--4--7--5--4|


|-----------------------------------------------------------------------|
|-----------------------------------------------------------------------|
|-----------------------------------------------------------------------|
|-----------------------------------------------------------------------|
|-4--5--7--2--4--5--4--5--4--7--5--4--2--4--2--5--4--2--4--5--4--7--5--4|
|-4--5--7-----------4--5--4--7--5--4--------------------4--5--4--7--5--4|

|------------------------------------------------------|
|------------------------------------------------------|
|------------------------------------------------------|
|------------------------------------------------------|
|-4--5--7--2--4--5--4--5--4--7--5--4--2--4--2--5--4--2-|
|-4--5--7-----------4--5--4--7--5--4-------------------|

Verse B

|---------------------------------------------------------------|
|---------------------------------------------------------------|
|---------------------------------------(4)-(4)--------(4)-(4)--|
|---------------------------------------------------------------|
|-5-5-5-5-5-5-7-5-5-5-5-5-5-5-7-5--4--4-----------4--4----------|
|-5-5-5-5-5-5-7-5-5-5-5-5-5-5-7-5--4--4-----------4--4----------|
PM. . . . . . . . . . . . . . . .  .  .           .  .

|---------------------------------------------------------------|
|---------------------------------------------------------------|
|---------------------------------------(4)-(4)--------(4)-(4)--|
|---------------------------------------------------------------|
|-5-5-5-5-5-5-7-5-5-5-5-5-5-5-7-5--4--4-----------4--4----------|
|-5-5-5-5-5-5-7-5-5-5-5-5-5-5-7-5--4--4-----------4--4----------|  
PM. . . . . . . . . . . . . . . .  .  .           .  .
[ Tab from: http://www.guitaretab.com/s/system-of-a-down/31568.html ]
|------------------------------------------------------------|
|------------------------------------------------------------|
|------------------------------------(4)---(4)---(4)---(4)---|
|------------------------------------------------------------|
|-5-5-5-5-5-5-7-5-5-5-5-5-5-5-7-5--4-----4-----4-----4-------|
|-5-5-5-5-5-5-7-5-5-5-5-5-5-5-7-5--4-----4-----4-----4-------|
PM. . . . . . . . . . . . . . . .  .     .     .     .   

|---------------------------------------------------------------|
|---------------------------------------------------------------|
|---------------------------------------(4)-(4)--------(4)-(4)--|
|---------------------------------------------------------------|
|-5-5-5-5-5-5-7-5-5-5-5-5-5-5-7-5--4--4-----------4--4----------|
|-5-5-5-5-5-5-7-5-5-5-5-5-5-5-7-5--4--4-----------4--4----------|  
PM. . . . . . . . . . . . . . . .  .  .           .  .

|------------------------------------------------------------|
|------------------------------------------------------------|
|------------------------------------(4)---(4)---(4)---(4)---|
|------------------------------------------------------------|
|-5-5-5-5-5-5-7-5-5-5-5-5-5-5-7-5--4-----4-----4-----4-------|
|-5-5-5-5-5-5-7-5-5-5-5-5-5-5-7-5--4-----4-----4-----4-------|
PM. . . . . . . . . . . . . . . .  .     .     .     .   

Chorus B


|----------------------------------------------------|
|----------------------------------------------------|
|----------------------------------------------------|
|----------------------------------------------------|
|-5--5-5-0--0-0-5--5-5-0--0-0-4--4-4--4-4--4-4--4-4-4|
|-5--5-5-0--0-0-5--5-5-0--0-0-4--4-4--4-4--4-4--4-4-4|

|---------------------------------------------|
|---------------------------------------------|
|---------------------------------------------|
|---------------------------------------------|
|-5--5-5-0--0-0-5--5-5-0--0-0-4--5--4--7--5--4|
|-5--5-5-0--0-0-5--5-5-0--0-0-4--5--4--7--5--4|


|--------------------------------------------------|
|--------------------------------------------------|
|--------------------------------------------------|
|--------------------------------------------------|
|-5--5-5-0--0-0-5--5-5-0--0-0-4--4-4--4-4--4-4--4-4-4|
|-5--5-5-0--0-0-5--5-5-0--0-0-4--4-4--4-4--4-4--4-4-4|

|---------------------------------------------|
|---------------------------------------------|
|---------------------------------------------|
|---------------------------------------------|
|-5--5-5-0--0-0-5--5-5-0--0-0-4--5--4--7--5--4|
|-5--5-5-0--0-0-5--5-5-0--0-0-4--5--4--7--5--4|

|-----------------------------------------------------------------------|
|-----------------------------------------------------------------------|
|-----------------------------------------------------------------------|
|-----------------------------------------------------------------------|
|-4--5--7--2--4--5--4--5--4--7--5--4--2--4--2--5--4--2--4--5--4--7--5--4|
|-4--5--7-----------4--5--4--7--5--4--------------------4--5--4--7--5--4|

|------------------------------------------------------|
|------------------------------------------------------|
|------------------------------------------------------|
|------------------------------------------------------|
|-4--5--7--2--4--5--4--5--4--7--5--4--2--4--2--5--4--2-|
|-4--5--7-----------4--5--4--7--5--4-------------------|

Solo

|---------------------------------------------14---|
|-12---14--15--14-----------12---14--15--14--------|
|-------------------12--11-------------------------|
|--------------------------------------------------|
|--------------------------------------------------|
|--------------------------------------------------|
(Double pick this entire line)

|---------------------------------------------14---|
|-12---14--15--14-----------12---14--15--14--------|
|-------------------12--11-------------------------|
|--------------------------------------------------|
|--------------------------------------------------|
|--------------------------------------------------|
(Double pick this entire line also)

Solo B

|-15---14-12-14---12-10-12---10-9-10--9---12---10-9-10|
|-----------------------------------------------------|
|-----------------------------------------------------|
|-----------------------------------------------------|
|-----------------------------------------------------|
|-----------------------------------------------------|
PM..   .. .. ..   .. .. ..   .. . ..  .   ..   .. . ..

|-9-7-6-7-9--9--9-997-7-7-7-6-6-6-6-7-7-7-7-6-6-6-6---|
|-----------------------------------------------------|
|-----------------------------------------------------|
|-----------------------------------------------------|
|-----------------------------------------------------|
|-----------------------------------------------------|
PM. . . . .  .  . ... . . . . . . . . . . .

Outro(Same as Chorus B)

|----------------------------------------------------|
|----------------------------------------------------|
|----------------------------------------------------|
|----------------------------------------------------|
|-5--5-5-0--0-0-5--5-5-0--0-0-4--4-4--4-4--4-4--4-4-4|
|-5--5-5-0--0-0-5--5-5-0--0-0-4--4-4--4-4--4-4--4-4-4|

|---------------------------------------------|
|---------------------------------------------|
|---------------------------------------------|
|---------------------------------------------|
|-5--5-5-0--0-0-5--5-5-0--0-0-4--5--4--7--5--4|
|-5--5-5-0--0-0-5--5-5-0--0-0-4--5--4--7--5--4|


|--------------------------------------------------|
|--------------------------------------------------|
|--------------------------------------------------|
|--------------------------------------------------|
|-5--5-5-0--0-0-5--5-5-0--0-0-4--4-4--4-4--4-4--4-4-4|
|-5--5-5-0--0-0-5--5-5-0--0-0-4--4-4--4-4--4-4--4-4-4|

|---------------------------------------------|
|---------------------------------------------|
|---------------------------------------------|
|---------------------------------------------|
|-5--5-5-0--0-0-5--5-5-0--0-0-4--5--4--7--5--4|
|-5--5-5-0--0-0-5--5-5-0--0-0-4--5--4--7--5--4|

|-----------------------------------------------------------------------|
|-----------------------------------------------------------------------|
|-----------------------------------------------------------------------|
|-----------------------------------------------------------------------|
|-4--5--7--2--4--5--4--5--4--7--5--4--2--4--2--5--4--2--4--5--4--7--5--4|
|-4--5--7-----------4--5--4--7--5--4--------------------4--5--4--7--5--4|

|------------------------------------------------------|
|------------------------------------------------------|
|------------------------------------------------------|
|------------------------------------------------------|
|-4--5--7--2--4--5--4--5--4--7--5--4--2--4--2--5--4--2-|
|-4--5--7-----------4--5--4--7--5--4-------------------|
Related for Thetawaves tab
Advertisement will be closed in 10 seconds