Song name
# A B C D E F G H I J K L M N O P Q R S T U V W X Y Z

System Of A Down - Mr Jack tab

Intro (altered from base)
D|-------------------------------------------------------------------------------|
A|-------------------------------------------------------------------------------|
F|-------------------------------------------------------------------------------|
C|-------------------------------------------------------------------------------|
G|-----8/7-----7/5-----5-------5------6-5------3-------3-------5-------5-----5---|
C|--0-------0-------0-------0-------0--------0-------0-------0-------0-----0-----|	x8

D|----------------------------------------------------------------------------------------|
A|------8/7----7-7-7-7-7-7-7/10-10-10----10-10-10-10-10/12-12-12----12-12-12-12-12/15-----|
F|-------------7-7-7-7-7-7-7/10-10-10----10-10-10-10-10/12-12-12----12-12-12-12-12/15-----|
C|-------------7-7-7-7-7-7-7/10-10-10-10-10-10-10-10-10/12-12-12-12-12-12-12-12-12/15-----|
G|----------------------------------------------------------------------------------------|
C|----------------------------------------------------------------------------------------|

D|-------------------------------------------------------------|
A|-----------15-15-15-15------17--17------17--15-15\\----------|
F|-----------15-15-15-15------15--15------15--15-15\\----------|
C|-----------15-15-15-15--15----------15---------15\\----------|
G|-------------------------------------------------------------|
C|-------------------------------------------------------------|

D|--------------------------------------------------------------------------------------------|
A|-------------7-7---7-7-7-7/10-10-10----10-10-10-10-10--12-12----12-12-12-12-12/15-----------|
F|-------------7-7-7-7---7-7/10-10-10----10-10-10-10-10--12-12----12-12-12-12-12/15-----------|
C|-------------7-7---7---7-7/10-10-10-10-10-10-10-10-10--12-12-12-12-12-12-12-12/15-----------|
G|--------------------------------------------------------------------------------------------|
C|--------------------------------------------------------------------------------------------|


D|-----------------------------------------|
A|-----------15----15-15----17-------------|
F|-----------15----15-15----15-------------|
C|-----------15-15-15-15-15-15-------------|
G|-----------------------------------------|
C|-----------------------------------------|

D|----------------------------------------------------------------------|
A|----------------------------------------------------------------------|
F|----------------------------------------------------------------------|
C|----------------------------------------------------------------------|
G|-----8/7-----7/5-----5-------5------6-5------3-------3-------5--------|
C|--0-------0-------0-------0-------0--------0-------0-------0----------|

D|--------------------------------------------------------------------------|
A|--------------------------------------------------------------------------|
F|--------------------------------------------------------------------------|
C|--0----2----------3---3---3---3------0----2----------3---3---3------------|
G|--0----0-----3----1---0---1---0------0----0-----3----1---0---1------------|
C|--0----------3-----------------------0----------3-------------------------|  x4
Verse 1
D|--------------------------------------------------------------------------|
A|--------------------------------------------------------------------------|
F|--------------------------------------------------------------------------|
C|--0----2----------3---3---3---3------0----2----------3---3---3------------|
G|--0----0-----3----1---0---1---0------0----0-----3----1---0---1------------|
C|--0----------3-----------------------0----------3-------------------------|
 pm ------------------------------------------------------------------------|   x4
Chorus
D|--------------------------------------------------------------------------|
A|--------------------------------------------------------------------------|
F|--------------------------------------------------------------------------|
C|--0----2----------3---3---3---3------0----2----------3---3---3------------|
G|--0----0-----3----1---0---1---0------0----0-----3----1---0---1------------|
C|--0----------3-----------------------0----------3-------------------------|   x2
Verse 2
D|--------------------------------------------------------------------------|
A|--------------------------------------------------------------------------|
F|--------------------------------------------------------------------------|
C|--0----2----------3---3---3---3------0----2----------3---3---3------------|
G|--0----0-----3----1---0---1---0------0----0-----3----1---0---1------------|
C|--0----------3-----------------------0----------3-------------------------|
 pm ------------------------------------------------------------------------|   x4
Chorus
D|--------------------------------------------------------------------------|
A|--------------------------------------------------------------------------|
F|--------------------------------------------------------------------------|
C|--0----2----------3---3---3---3------0----2----------3---3---3------------|
G|--0----0-----3----1---0---1---0------0----0-----3----1---0---1------------|
C|--0----------3-----------------------0----------3-------------------------|  x4
Bridge
D|----13---12---10---10---11---10---8---8---10---10---10---------------|
A|----x----x----x----x----x----x----x---x---x----x-----x---------------|
F|----10---9----7----7----8----7----5---5---7----7-----7---------------|
C|---------------------------------------------------------------------|
G|---------------------------------------------------------------------|
C|--0------------------------------------------------------------------|  x6
One more time with this ending
D|----13---12---10---10---11---10---8---8---10---10---10---10---10---10---10---10------|
A|----x----x----x----x----x----x----x---x---x----x----x----x----x----x----x-----x------|
F|----10---9----7----7----8----7----5---5---7----7----7----7----7----7----7-----7------|
C|-------------------------------------------------------------------------------------|
G|-------------------------------------------------------------------------------------|
C|--0----------------------------------------------------------------------------------|

D|--------------------------------------------------------------------------|
A|--------------------------------------------------------------------------|
F|--------------------------------------------------------------------------|
C|--0-0---2-2---------3---3---3----0-0----2-2---------3---3---3-------------|
G|--0-0---0-2---3-3---1---0---1----0-0----0-0--3-3----1---0---1-------------|
C|--0-0---------3-3----------------0-0---------3-3--------------------------|   x3


D|--------------------------------------------------------------------------|
A|--------------------------------------------------------------------------|
F|--------------------------------------------------------------------------|
C|--0-0---2-2---------3---3---3----0-0----2-2---------3---3---3-------------|
G|--0-0---0-2---3-3---1---0---1----0-0----0-0--3------1---0---1-------------|
C|--0-0---------3-3----------------0-0---------3----------------------------|
Heavy Part
D|------------------------------------------------------------------------------|
A|------------------------------------------------------------------------------|
F|------------------------------------------------------------------------------|
C|------------------------------------------------------------------------------| this bit
G|--0-1-0-1-0-1---------0---------0-0-1-0-1-0-1-0-0-0-0-0-0---------------------|
C|--0-1-0-1-0-1-0-0-0-0-0-0-0-0-0-0-0-1-0-1-0-1-0-0-0-0-0-0---------------------|

D|------------------------------------------------------------------------------|
A|------------------------------------------------------------------------------|
F|------------------------------------------------------------------------------|
C|------------------------------------------------------------------------------|      x2
G|--0-1-0-1-0-1---------0---------0-0-1-0-1-0-1-0-0-0-0-------------------------|
C|--0-1-0-1-0-1-0-0-0-0-0-0-0-0-0-0-0-1-0-1-0-1-0-0-0-0-------------------------|

D|------------------------------------------------|
A|------------------------------------------------|
F|------------------------------------------------|
C|------------2-2-------------3-------------------|
G|--0-0-0-0---0-0---3-3-3-3---1-------------------|
C|--0-0-0-0---------3-3-3-3-----------------------|      x3
  pm------|       pm------------------------------|


D|--------------------------------|
A|--------------------------------|
F|------2-------3-----------------|
C|--0---2---3---3-----------------|
G|--0---0---3---1-----------------|
C|--0-------3--------------   x 5-|

thats all.please commant
Tap to rate this tab
# A B C D E F G H I J K L M N O P Q R S T U V W X Y Z