Song name
# A B C D E F G H I J K L M N O P Q R S T U V W X Y Z

System Of A Down - Roulette tab

-------------------------------------------------------------------------------
			     Roulette - System of a Down
-------------------------------------------------------------------------------
Tabbed by: Muzzy A
E-mail: teh_muz@hotmail.com

Tuning: E Standard

My first tab.


Verse:
E|------------------------------------------------------------------------------|
B|------------------------------------------------------------------------------|
G|----8--------8---------12---------7--------10--------10--------5--------7-----|
D|------------------------------------------------------------------------------|
A|------------------------------------------------------------------------------|
E|-8-----8--8-----8--11------11--6-----6--9------9--9------9--4-----4--6-----6--|

E|-----------------------------------------------------------------------|
B|-----------------------------------------------------------------------|
G|--8--------8--------4--------4--------7--------7--------5--------7-----|
D|-----------------------------------------------------------------------|
A|-----------------------------------------------------------------------|
E|-8---8--8-----8--3-----3--3-----3--6-----6--6-----6--4-----4--6-----6--|


I can't tell what they're doing on the second guitar for the solo, But this is 
definitely accurate I play with it all the time.

Solo
E|------------------------------------------------------------------------------------|
B|--13~----13-13-16~----16-16-18~----16-16-18--16--15\13--15--16--15--13--13----------|
G|----------------------------------------------------------------------------12--12--|
D|------------------------------------------------------------------------------------|
A|------------------------------------------------------------------------------------|
E|------------------------------------------------------------------------------------|

E|---------------------------------------------------|
B|---------------------------------------------------|
G|--12-12-15--12--12\10--12--13--12--10--10----------|
D|---------------------------------------------------|
A|-------------------------------------------13--13--|
E|---------------------------------------------------|

E|---------------------------------|
B|--9\8--8--8\7--7--7\5--5--5~-----|
G|--9\8--8--8\7--7--7\5--5--5~-----|
D|---------------------------------|
A|---------------------------------|
E|---------------------------------|
Tap to rate this tab
# A B C D E F G H I J K L M N O P Q R S T U V W X Y Z