Song name
# A B C D E F G H I J K L M N O P Q R S T U V W X Y Z

System Of A Down - Storaged tab

Artist: System Of A Down
Song: Storaged
Tuning: Drop C (C,G,C,F,A,D)
Tabbed By: Adam Eugenio (LinkinParkX13@hotmail.com) (AIM: X SiMPLiSTiK)

Intro/Outro
~~~~~~~~~~~
|----------|
|----------|
|----------|
|----8-7---|
|--5-6-5-0-|
|--5-----0-|


Verse 1
~~~~~~~
|------|---------|
|------|---------|
|------|---------|
|--3-5-|---8-7---|
|--3-5-|-5-6-5-0-|
|--3-5-|-5-----0-|

Chorus
~~~~~~
|--------------------------------------------------------------------------|
|--------------------------------------------------------------------------|
|--------------------------------------------------------------------------|
|--6-5---6-5---6-5---6-5---6-5---6-5---6-5---6-5---5-3---5-3---5-3---5-3---|
|--6-5---6-5---6-5---6-5---6-5---6-5---6-5---6-5---5-3---5-3---5-3---5-3---|
|--6-5---6-5---6-5---6-5---6-5---6-5---6-5---6-5---5-3---5-3---5-3---5-3---|
S                                                    -     -     -     -

|------------------------|
|------------------------|
|------------------------|
|--6-5---6-5---6-5---6-5-|
|--6-5---6-5---6-5---6-5-|
|--6-5---6-5---6-5---6-5-|
Tap to rate this tab
# A B C D E F G H I J K L M N O P Q R S T U V W X Y Z