Song name
# A B C D E F G H I J K L M N O P Q R S T U V W X Y Z

System Of A Down - Mushroom Cult tab

     ____________________________
    / Dog Fashion Disco         /  I think this song is about drugs. They use
   / (feat. Serj Tankian)      /  the religious cult this as a metaphor for the
  / Mushroom Cult             /  power of the drugs and how strongly it controls
 / Anarchists of Good Taste  /  your way of thoughts as religion does.
/___________________________/  I love this song for the all 11 insane riffs ;)

 Guitar: (D A D G B E - Drop D tuning)
Switch distortion on/off with a very evil distortion pedal!


 Intro:
[Distorted]
 Q=78 bpm
 4/4                                 9/8
    E   E   E   E   E   E   E   E     E   E   E   E   E   E   E   E   E    4x
||----------------------------------|--------------------------------------||
||o---------------------------------|-------------------------------------o||
||----------------------------------|--------------------------------------||
||----------3-------5---------------|--------------------------------------||
||o-3---5---------------5---3---5---|-4---5---7---8-------6---7---6---5---o||
||--3---5-------5---------------5---|-4---5---7-------7-------7---6---5----||


 Q=89 bpm
 17/16
  e   e   e   S S S e   e   e   S S   e   e   e   S S S e   e   e   S S
|-----------------------------------|-----------------------------------|
|-6---6---6---6-6-6-6---6---6---6-6-|-6---6---6---6-6-6-6---6---6---6-6-|
|-4---4---4---4-4-4-4---4---4---4-4-|-4---4---4---4-4-4-4---4---4---4-4-|
|-----------------------------------|-----------------------------------|
|-----------------------------------|-----------------------------------|
|-----------------------------------|-----------------------------------|



 1st Verse:
[Clean]
 6/8
  E   S S S S E   S S S S   E   S S S S E   S S S S
|-------------------------|-------------------------|
|-------------------------|-------------------------|
|-------------------------|-------------------------|
|-------------------------|-------------------------|
|-------------------------|---------------------3-5-|
|-0---3-6p5p3-0---3-3h5-3-|-0---3-3h5-3-0---3-5-----|


  E   S S S S E   S S S S   E   S S S S E   S S S S
|-------------------------|-------------------------|
|-------------------------|-------------------------|
|-------------------------|-------------------------|
|-------------------------|-------------------------|
|-------------------------|-------------------------|
|-0---3-3h5-3-0---3-3h5-3-|-0---3-3h5-3-0---3-3h5-3-|


  E   S S S S E   S S S S   E   S S S S E   S S S S
|-------------------------|-------------------------|
|-------------------------|-------------------------|
|-------------------------|-------------------------|
|-------------------------|-------------------------|
|-------------------------|---------------------3-5-|
|-0---3-3h5-3-0---3-3h5-3-|-0---3-3h5-3-0---3-5-----|


  E   S S S S E   S S S S   E   S S S S E   S S S S
|-------------------------|-------------------------|
|-------------------------|-------------------------|
|-------------------------|-----------------------3-|
|-------------------------|---------0-5-4---0-5-6---|
|-------------------------|-------------------------|
|-0---3-3h5-3-0---3-3h5-3-|-0---3h5-----------------|


  " Kaleidoscope of love
    Ophidians dance as the shifting occurs
    We are stars and electric animals
    Nurtured by the mothers of prostitutes "



 Pre-Chorus:
[Distorted]
 Q=85 bpm
                                                       1.,2.,3.
 6/8                                                   3/8
    e.    e.    e.    e.      E.    e.    e.    E   S   e.    e.
||--------------------------|-------------------------|--------------||
||o-------------------------|-------------------------|-------------o||
||--5-----5-----5-----5-----|-8-----5-----5-----------|--------------||
||--5-----5-----5-----5-----|-8-----5-----5-----6---5-|-4-----4------||
||o-3-----3-----3-----3-----|-6-----3-----3-----6---5-|-4-----4-----o||
||--------------------------|-------------------6---5-|-4-----4------||


 4.
 6/8
  e.    e.    e.    e.      S S S S S S S S S S S S
|-------------------------|-------------------------|
|-------------------------|-------------------------|
|-------------------------|-6-6-6-6-6-6-6-6-6-6-6-6-|
|-4-----4-----4-----4-----|-4-4-4-4-4-4-4-4-4-4-4-4-|
|-4-----4-----4-----4-----|-4-4-4-4-4-4-4-4-4-4-4-4-|
|-4-----4-----4-----4-----|-4-4-4-4-4-4-4-4-4-4-4-4-|


  " Floating in a mushroom universe
    Swimming in a sea of cyclostomes
    And as we surface through the tide
    You open up and I come inside "



 Chorus:
 6/8
                      PM--|                         PM--|
    E   S E.    E   S S S S   a E   S E.     E    S S S S
||--------------------------|------------------------------||
||o-------------------------|-----------------------------o||
||--------------------------|------------------------------||
||--2---1-------2---5-------|-5s8---5--------8---11--------||
||o-2---1-------2---5-------|-5s8---5--------8---11-------o||
||--2---1-------2---5-2-1-0-|-5s8---5--------8---11-8-7-6--||


                                                    PM--|
    E   S E.    E   S  E   S   a E   S E.    E    S S S S
||---------------------------|-----------------------------||
||o--------------------------|----------------------------o||
||--------3------------------|---------6-------------------||
||--2---1-3-----1---5-(5)----|-5s8---5-6-----8---11--------||
||o-2---1-1-----1---5-(5)----|-5s8---5-4-----8---11-------o||
||--2---1-------1---5=s4---3-|-5s8---5-------8---11-8-7-6--||


  " I must be in limbo
   'Cause purgatory's always felt like home "



 2nd Verse:
similar to 1st Verse

  " And as the world spins round and round
    We fornicate upon the cotton clouds
    That rain down sulphur smiles
    On the children at play in the poppy fields "



 Pre-Chorus:
similar to previous

  " Sinking for what seems like forever
    Like Atlantis into the sea
    To forget the shore and wash away
    Wash away my memory "



 Chorus:
similar to previous

  " I must be in limbo
   'Cause purgatory's always felt like home "



 Interlude:
 Q=87 bpm                                                     1.
 9/16
    E.    E.    E.      E.    E.    E.      E.    E.    E.      S S S S S S E.
||--------------------|-------------------|-------------------|--------------------||
||o-------------------|-------------------|-------------------|-------------------o||
||--------------------|-------------------|-------------------|-6-5-5-6-5-5-8------||
||--5-----------7-----|-5-----------7-----|-5-----------7-----|-x-x-x-x-x-x-x------||
||o-4-----------6-----|-4-----------6-----|-4-----------6-----|-4-3-3-4-3-3-6-----o||
||--5-----------5-----|-5-----------5-----|-5-----------5-----|--------------------||


 2.
               Q=81 bpm
 3/8           2/4
  S S S S S S   H
|-------------|-----------------|
|-------------|-----------------|
|-6-5-5-6-5-5-|-8---------------|
|-x-x-x-x-x-x-|-x---------------|
|-4-3-3-4-3-3-|-6---------------|
|-------------|-----------------|



 Bridge:
 Q=81 bpm
 4/4                                 3/4
                                                  PM|
    E   S S Q       E   S S Q         E   S S e   S S e   e    4x
||----------------------------------|--------------------------||
||o---------------------------------|-----------------4---4---o||
||----------------------------------|---------1-------2---2----||
||--1---4-3-2-------1---4-3-2-------|-1---4-3-2-------1---1----||
||o-1---4-3-2-------1---4-3-2-------|-1---4-3-1---------------o||
||--1---4-3-2-------1---4-3-2-------|-1---4-3-----2-1----------||


  " Inside the moon lives the high priest of the mushroom cult
    Upon the altar are the ashes of the Pharisees
    I sold my soul
    Sold my soul
    Sold my soul away
    I'm free of guilt
    Free of sin
    Free of everything "



 Interlude:
 Q=85 bpm
 4/4
    e   e   e   e   e   e   e   e     e   e   e   e   S S S S S S S S
||----------------------------------|----------------------------------||
||o-4---4---4---4---4---4---4---4---|-4---4---4---4-----3-3-3---3-3-3-o||
||--2---2---2---2---2---2---2---2---|-2---2---2---2-----1-1-1---1-1-1--||
||--1---1---1---1---1---1---1---1---|-1---1---1---1-----0-0-0---0-0-0--||
||o---------------------------------|---------------------------------o||
||----------------------------------|----------------------------------||



 La-La Part:
 Q=84 bpm
    PM|     PM|     PM|     PM|
    S S E   S S E   S S E   S S E    4x
||-----------------------------------||
||o---------------------------------o||
||-----------------------------------||
||------5-------2-------6-------5----||
||o---4-------4-------4-------4-----o||
||--4-------5-------3-------2--------||


 Q=87 bpm
    q       q       q       q        4x
||-----------------------------------||
||o---------------------------------o||
||-----------------------------------|| (these are just the same chords
||--5-------2-------6-------5--------||  as before, just strummmed instead)
||o-4-------4-------4-------4-------o||
||--4-------5-------3-------2--------||


 Q=85 bpm
    PM|     PM|     PM|     PM|
    S S E   S S E   S S E   S S E    4x
||-----------------------------------||
||o---------------------------------o||
||-----------------------------------||
||------5-------2-------6-------5----||
||o---4-------4-------4-------4-----o||
||--4-------5-------3-------2--------||



 Bridge:
 Q=85 bpm
 4/4                                 3/4
                                                  PM|
    E   S S Q       E   S S Q         E   S S e   S S e   e    4x
||----------------------------------|--------------------------||
||o---------------------------------|-----------------4---4---o||
||----------------------------------|---------1-------2---2----||
||--1---4-3-2-------1---4-3-2-------|-1---4-3-2-------1---1----||
||o-1---4-3-2-------1---4-3-2-------|-1---4-3-1---------------o||
||--1---4-3-2-------1---4-3-2-------|-1---4-3-----2-1----------||


  " Inside the moon lives the high priest of the mushroom cult
    Upon the altar are the ashes of the Pharisees
    I sold my soul
    Sold my soul
    Sold my soul away
    I'm free of guilt
    Free of sin
    Free of everything "



 Outro:
 Q=85 bpm
 4/4                                 9/8
    E   E   E   E   E   E   E   E     E   E   E   E   E   E   E   E   E
||----------------------------------|--------------------------------------||
||o---------------------------------|-------------------------------------o||
||----------------------------------|--------------------------------------||
||----------3-------5---------------|--------------------------------------||
||o-3---5---------------5---3---5---|-4---5---7---8-------6---7---6---5---o||
||--3---5-------5---------------5---|-4---5---7-------7-------7---6---5----||


 4/4
    E   E   E   E   E   E   E   E     E   E   E   E   E   E   E   E
||----------------------------------|----------------------------------||
||o---------------------------------|---------------------------------o||
||----------------------------------|----------------------------------||
||----------3-------5---------------|----------------------------------||
||o-3---5---------------5---3---5---|-4---5---7---8-------6---7---6---o||
||--3---5-------5---------------5---|-4---5---7-------7-------7---6----||


  q       H.
|---------------------------------|
|---------------------------------|
|---------------------------------|
|---------------------------------|
|-5\------------------------------|
|-5\------------------------------|


- 5th /May /07
Just mail me at Maitinin@gmail.com with questions, comments and corrections!
Tap to rate this tab
# A B C D E F G H I J K L M N O P Q R S T U V W X Y Z