Song name
# A B C D E F G H I J K L M N O P Q R S T U V W X Y Z

System Of A Down - Cigaro tab

Band:System of a Down
Album:Mezmerize
Song:Cigaro
Tuning:Drop D Down 1/2 step                  guitar 1=distorded
(low-high)C#-G#-C#-F#-A#-D#                  guitar 2=distorded
p=pull off
PM=palm muted
LR=let ring
Here is the 100% percent tab of the great song
Cigaro!
Intro(guitar 1+2)
 PM..    ....    ....    ....    ....    ....    
|----------------------------------------------------------------------|
|----------------------------------------------------------------------|
|----------------------------------------------------------------------|
|----------------------------------------------------------------------|
|1-0-1p0-1-0-1p0-1-0-1p0-1-0-1p0-1-0-1p0-1-0-1p0-13-12-10-12-10-8-10p0-|
|1-0-1p0-1-0-1p0-1-0-1p0-1-0-1p0-1-0-1p0-1-0-1p0-13-12-10-12-10-8-10p0-|

 PM..    ....    ....    ....    ....    ....    
|----------------------------------------------------------------------|
|----------------------------------------------------------------------|
|----------------------------------------------------------------------|
|----------------------------------------------------------------------|
|1-0-1p0-1-0-1p0-1-0-1p0-1-0-1p0-1-0-1p0-1-0-1p0-13-12-10-12-10-8-10p0-|
|1-0-1p0-1-0-1p0-1-0-1p0-1-0-1p0-1-0-1p0-1-0-1p0-13-12-10-12-10-8-10p0-|

 PM..............................................
|----------------------------------------------------------------------|
|----------------------------------------------------------------------|
|----------------------------------------------------------------------|
|----------------------------------------------------------------------|
|1-0-1-0-1-0-1-0-1-0-1-0-1-0-1-0-1-0-1-0-1-0-1-0-13-12-10-12-10-8-10-0-|
|1-0-1-0-1-0-1-0-1-0-1-0-1-0-1-0-1-0-1-0-1-0-1-0-13-12-10-12-10-8-10-0-|

PM..............................................
|----------------------------------------------------------------------|
|----------------------------------------------------------------------|
|----------------------------------------------------------------------|
|----------------------------------------------------------------------|
|1-0-1-0-1-0-1-0-1-0-1-0-1-0-1-0-1-0-1-0-1-0-1-0-13-12-10-12-10-8-10-0-|
|1-0-1-0-1-0-1-0-1-0-1-0-1-0-1-0-1-0-1-0-1-0-1-0-13-12-10-12-10-8-10-0-|
Verse 1
(my cock is...)
PM.....               ........
|----------------------------------------------------------------------
|----------------------------------------------------------------------
|----------------------------------------------------------------------
|----------------------------------------7-7-7-------------------------
|0-0-0----15-14-15-14-12-11-12-0-8-7-8---5-5-5----15-14-15-14-12-11-12-
|0-0-0----15-14-15-14-12-11-12-0-8-7-8-0----------15-14-15-14-12-11-12-

----------|
----------|
----------|
----------|
0-8-7-8-0-|
0-8-7-8-0-|
Chorus 1
(cool in denial...)
PM..    ....    ....    ....    ....    ....    
|----------------------------------------------------------------------|
|----------------------------------------------------------------------|
|----------------------------------------------------------------------|
|----------------------------------------------------------------------|
|1-0-1p0-1-0-1p0-1-0-1p0-1-0-1p0-1-0-1p0-1-0-1p0-13-12-10-12-10-8-10p0-|
|1-0-1p0-1-0-1p0-1-0-1p0-1-0-1p0-1-0-1p0-1-0-1p0-13-12-10-12-10-8-10p0-|

 PM..    ....    ....    ....    ....    ....    
|----------------------------------------------------------------------|
|----------------------------------------------------------------------|
|----------------------------------------------------------------------|
|----------------------------------------------------------------------|
|1-0-1p0-1-0-1p0-1-0-1p0-1-0-1p0-1-0-1p0-1-0-1p0-13-12-10-12-10-8-10p0-|
|1-0-1p0-1-0-1p0-1-0-1p0-1-0-1p0-1-0-1p0-1-0-1p0-13-12-10-12-10-8-10p0-|
Verse 2
(my shit stinks...)
|----------------------------------------|
|----------------------------------------|
|----------------------------------------|
|7-7-7-----------------------------------|
|5-5-5----15-14-15-14-12-11-12-0-8-7-8-7-|
|---------15-14-15-14-12-11-12-0-8-7-8-7-|

|----------------------------------------|
|----------------------------------------|
|----------------------------------------|
|7-7-7-----------------------------------|
|5-5-5----15-14-15-14-12-11-12-0-8-7-8-7-|
|---------15-14-15-14-12-11-12-0-8-7-8-7-|
Chorus 2

(cool in denial...)
PM..    ....    ....    ....    ....    ....    
|----------------------------------------------------------------------|
|----------------------------------------------------------------------|
|----------------------------------------------------------------------|
|----------------------------------------------------------------------|
|1-0-1p0-1-0-1p0-1-0-1p0-1-0-1p0-1-0-1p0-1-0-1p0-13-12-10-12-10-8-10p0-|
|1-0-1p0-1-0-1p0-1-0-1p0-1-0-1p0-1-0-1p0-1-0-1p0-13-12-10-12-10-8-10p0-|

 PM..    ....    ....    ....    ....    ....    
|----------------------------------------------------------------------|
|----------------------------------------------------------------------|
|----------------------------------------------------------------------|
|----------------------------------------------------------------------|
|1-0-1p0-1-0-1p0-1-0-1p0-1-0-1p0-1-0-1p0-1-0-1p0-13-12-10-12-10-8-10p0-|
|1-0-1p0-1-0-1p0-1-0-1p0-1-0-1p0-1-0-1p0-1-0-1p0-13-12-10-12-10-8-10p0-|
Guitar 1+2
 PM......................................................................
|------------------------------------------------------------------------|
|------------------------------------------------------------------------|
|------------------------------------------------------------------------|
|------------------------------------------------------------------------|
|------------------------------------------------------------------------|
|13-12-13-12-13-12-13-12-13-12-13-12-13-12-13-12-13-12-13-12-13-12-13-12-|
 (Guitar 1)
|----------------------|
|----------------------|
|----------------------|
|----------------------|
|13-12-10-12-10-8-10-0-|
|13-12-10-12-10-8-10-0-|
|(Guitar 2)            |
|PM....................|
|----------------------|
|----------------------|
|----------------------|
|----------------------|
|----------------------|
|13-12-10-12-10-8-10-0-|
 Guitar 1+2
PM......................................................................
|------------------------------------------------------------------------|
|------------------------------------------------------------------------|
|------------------------------------------------------------------------|
|------------------------------------------------------------------------|
|------------------------------------------------------------------------|
|13-12-13-12-13-12-13-12-13-12-13-12-13-12-13-12-13-12-13-12-13-12-13-12-|
 (Guitar 1)
|----------------------|
|----------------------|
|----------------------|
|----------------------|
|13-12-10-12-10-8-10-0-|
|13-12-10-12-10-8-10-0-|
|(Guitar 2)            |
|PM....................|
|----------------------|
|----------------------|
|----------------------|
|----------------------|
|----------------------|
|13-12-10-12-10-8-10-0-|
Interlude
(cant you see...)
 PM..  ....  ....  ....
|------------------------|
|----6-----6-----6-----6-|
|----7-----7-----7-----7-|
|----7-----7-----7-----7-|
|0-0---0-0---0-0---0-0---|
|0-0---0-0---0-0---0-0---|

|--------------------------------|
|6-5-6-5-------------------------|
|--------7-6-7-6-----------------|
|----------------8-7-8-0-5-3-5-3-|
|--------------------------------|
|--------------------------------|
PM...............................
|--------------------------------|
|--------------------------------|
|--------------------------------|
|--------------------------------|
|0-0-0-0-0-0-0-0-0-0-0-0-0-0-0-0-|
|0-0-0-0-0-0-0-0-0-0-0-0-0-0-0-0-|

|--------------------------------|
|6-5-6-5-------------------------|
|--------7-6-7-6-----------------|
|----------------8-7-8-0-5-3-5-3-|
|--------------------------------|
|--------------------------------|
PM..  ....  ....  ....
|------------------------|
|----6-----6-----6-----6-|
|----7-----7-----7-----7-|
|----7-----7-----7-----7-|
|0-0---0-0---0-0---0-0---|
|0-0---0-0---0-0---0-0---|

|--------------------------------|
|6-5-6-5-------------------------|
|--------7-6-7-0-----------------|
|----------------8-7-8-0-5-3-5-0-|
|--------------------------------|
|--------------------------------|

|--------------------------------|
|6-5-6-5-------------------------|
|--------7-6-7-0-----------------|
|----------------8-7-8-0-5-3-5-0-|
|--------------------------------|
|--------------------------------|

|--------------------------------|
|6-5-6-5-------------------------|
|--------7-6-7-0-----------------|
|----------------8-7-8-0-5-3-5-0-|
|--------------------------------|
|--------------------------------|
Bridge
(Were the regulators...)
|------------------------------------------------------------------------
|------------------------------------------------------------------------
|------------------------------------------------------------------------
|------------------------------------------------------------------------
|15-14-15-14-17-15-17-14-14-12-14-12-15-14-15-12-12-10-12-10-14-12-14-12-
|15-14-15-14-17-15-17-14-14-12-14-12-15-14-15-12-12-10-12-10-14-12-14-12-
LR.....
-------|
-------|
-----0-|
-------|
---8---|
11-----|

|------------------------------------------------------------------------
|------------------------------------------------------------------------
|------------------------------------------------------------------------
|------------------------------------------------------------------------
|15-14-15-14-17-15-17-14-14-12-14-12-15-14-15-12-12-10-12-10-14-12-14-12-
|15-14-15-14-17-15-17-14-14-12-14-12-15-14-15-12-12-10-12-10-14-12-14-12-
LR.....
-------|
-------|
-----0-|
-------|
---8---|
11-----|

|------------------------------------------------------------------------
|------------------------------------------------------------------------
|------------------------------------------------------------------------
|------------------------------------------------------------------------
|15-14-15-14-17-15-17-14-14-12-14-12-15-14-15-12-12-10-12-10-14-12-14-12-
|15-14-15-14-17-15-17-14-14-12-14-12-15-14-15-12-12-10-12-10-14-12-14-12-
LR.....
-------|
-------|
-----0-|
-------|
---8---|
11-----|

|------------------------------------------------------------------------
|------------------------------------------------------------------------
|------------------------------------------------------------------------
|------------------------------------------------------------------------
|15-14-15-14-17-15-17-14-14-12-14-12-15-14-15-12-12-10-12-10-14-12-14-12-
|15-14-15-14-17-15-17-14-14-12-14-12-15-14-15-12-12-10-12-10-14-12-14-12-
LR.....
-------|
-------|
-----0-|
-------|
---8---|
11-----|


(cool in denial...)
PM..    ....    ....    ....    ....    ....    
|----------------------------------------------------------------------|
|----------------------------------------------------------------------|
|----------------------------------------------------------------------|
|----------------------------------------------------------------------|
|1-0-1p0-1-0-1p0-1-0-1p0-1-0-1p0-1-0-1p0-1-0-1p0-13-12-10-12-10-8-10p0-|
|1-0-1p0-1-0-1p0-1-0-1p0-1-0-1p0-1-0-1p0-1-0-1p0-13-12-10-12-10-8-10p0-|

 PM..    ....    ....    ....    ....    ....    
|----------------------------------------------------------------------|
|----------------------------------------------------------------------|
|----------------------------------------------------------------------|
|----------------------------------------------------------------------|
|1-0-1p0-1-0-1p0-1-0-1p0-1-0-1p0-1-0-1p0-1-0-1p0-13-12-10-12-10-8-10p0-|
|1-0-1p0-1-0-1p0-1-0-1p0-1-0-1p0-1-0-1p0-1-0-1p0-13-12-10-12-10-8-10p0-|
(were the regulators...)
|------------------------------------------------------------------------
|------------------------------------------------------------------------
|------------------------------------------------------------------------
|------------------------------------------------------------------------
|15-14-15-14-17-15-17-14-14-12-14-12-15-14-15-12-12-10-12-10-14-12-14-12-
|15-14-15-14-17-15-17-14-14-12-14-12-15-14-15-12-12-10-12-10-14-12-14-12-
LR.....
-------|
-------|
-----0-|
-------|
---8---|
11-----|

|------------------------------------------------------------------------
|------------------------------------------------------------------------
|------------------------------------------------------------------------
|------------------------------------------------------------------------
|15-14-15-14-17-15-17-14-14-12-14-12-15-14-15-12-12-10-12-10-14-12-14-12-
|15-14-15-14-17-15-17-14-14-12-14-12-15-14-15-12-12-10-12-10-14-12-14-12-
LR.....
-------|
-------|
-----0-|
-------|
---8---|
11-----|
(cool in denial...)
PM..    ....    ....    ....    ....    ....    
|----------------------------------------------------------------------|
|----------------------------------------------------------------------|
|----------------------------------------------------------------------|
|----------------------------------------------------------------------|
|1-0-1p0-1-0-1p0-1-0-1p0-1-0-1p0-1-0-1p0-1-0-1p0-13-12-10-12-10-8-10p0-|
|1-0-1p0-1-0-1p0-1-0-1p0-1-0-1p0-1-0-1p0-1-0-1p0-13-12-10-12-10-8-10p0-|

 PM..    ....    ....    ....    ....    ....    
|----------------------------------------------------------------------|
|----------------------------------------------------------------------|
|----------------------------------------------------------------------|
|----------------------------------------------------------------------|
|1-0-1p0-1-0-1p0-1-0-1p0-1-0-1p0-1-0-1p0-1-0-1p0-13-12-10-12-10-8-10p0-|
|1-0-1p0-1-0-1p0-1-0-1p0-1-0-1p0-1-0-1p0-1-0-1p0-13-12-10-12-10-8-10p0-|
Outro
(my cock is...)
PM...................................................................
|--------------------------------------------------------------------
|--------------------------------------------------------------------
|--------------------------------------------------------------------
|--------------------------------------------------------------------
|0-0-0----0-0-0----0-0-0----0-0-0--0-0-0--0-0-0--0-0-0--0-0-0--0-0-0-
|0-0-0----0-0-0----0-0-0----0-0-0--0-0-0--0-0-0--0-0-0--0-0-0--0-0-0-

..............
--------------------------------|
--------------------------------|
--------------7-7-7-7-7-7-7-7-7-|
--------------7-7-7-7-7-7-7-7-7-|
-0-0-0--0-0-0-5-5-5-5-5-5-5-5-5-|
-0-0-0--0-0-0-------------------|

Tap to rate this tab
# A B C D E F G H I J K L M N O P Q R S T U V W X Y Z