Song name
# A B C D E F G H I J K L M N O P Q R S T U V W X Y Z

System Of A Down - Violent Pornography tab

Song: Violent Pornography
Band: System of a Down
Album: Mezmerize
Guitarist: Daron Malakian.

---------------------------------
Tabber: Arvin (arvin1994@hotmail.com)
Tabbed: 11 Oktober 2008
Comment: I've seen a lot of tabs that are not 100% accurate. So I decided to listen to 
song and write down the tabs. Here are my tabs, and I'm sure it's 100% accurate.
If you find something wrong in my tab, send me an email.

------------------------------------------------------------------
Drop D and a half step down.

* = Palm Muting
( )= Let Ring
+ = Played Clean, without distortion.
H = hammer on
P = Pull off
^ = Bend

(Intro x2)

E#|------------------------------------------------------|
B#|------------------------------------------------------|
G#|------------------------------------------------------|
D#|------------------------------------------------------|
A#|----9-10-10h12--13-12-10--13-12-10--9^10---13-17-13---|
D#|--0---------------------------------------------------|

(Vers)

E#|--------------------------|
B#|--------------------------|
G#|--------------------------|
D#|--7-8---8-9---9-8---8-7---|
A#|--5-6---6-7---7-6---6-5---|
D#|--------------------------|

("It's a non stop disco" part)
E#|------------------------------------------|
B#|------------------------------------------|
G#|-------7----------7----------7------------|
D#|-------5----------5----------5----1-3-4---|
A#|---0-0----0-0-0-0----0-0-0-0------1-3-4---|
D#|---0-0----0-0-0-0----0-0-0-0------1-3-4---|
      * *    * * * *    * * * *

E#|------------------------------------------|
B#|------------------------------------------|
G#|-------7----------7----------7------------|
D#|-------5----------5----------5----4-3-1---|
A#|---0-0----0-0-0-0----0-0-0-0------4-3-1---|
D#|---0-0----0-0-0-0----0-0-0-0------4-3-1---|
      * *    * * * *    * * * *

E#|------------------------------------|
B#|------------------------------------|
G#|-------7------7--------7------------|
D#|-------5------5--------5-----1-3-4--|
A#|---0-0-----0-0-----0-0-------1-3-4--|
D#|---0-0-----0-0-----0-0-------1-3-4--|
      * *     * *     * *

E#|---------------------------------------------|
B#|---------------------------------------------|
G#|-----------7----------7----------7-----------|
D#|-----------5----------5----------5----4-3-1--|
A#|---0-0-0-0---0-0-0-0-----0-0-0-0------4-3-1--|
D#|---0-0-0-0---0-0-0-0-----0-0-0-0------4-3-1--|
      * * * *   * * * *     * * * *


(Verse)
E#|--------------------------|
B#|--------------------------|
G#|--------------------------|
D#|--7-8---8-9---9-8---8-7---|
A#|--5-6---6-7---7-6---6-5---|
D#|--------------------------|


("It's a non stop disco" part)
E#|------------------------------------------|
B#|------------------------------------------|
G#|-------7----------7----------7------------|
D#|-------5----------5----------5----1-3-4---|
A#|---0-0----0-0-0-0----0-0-0-0------1-3-4---|
D#|---0-0----0-0-0-0----0-0-0-0------1-3-4---|
      * *    * * * *    * * * *

E#|------------------------------------------|
B#|------------------------------------------|
G#|-------7----------7----------7------------|
D#|-------5----------5----------5----4-3-1---|
A#|---0-0----0-0-0-0----0-0-0-0------4-3-1---|
D#|---0-0----0-0-0-0----0-0-0-0------4-3-1---|
      * *    * * * *    * * * *

E#|------------------------------------|
B#|------------------------------------|
G#|-------7------7--------7------------|
D#|-------5------5--------5-----1-3-4--|
A#|---0-0-----0-0-----0-0-------1-3-4--|
D#|---0-0-----0-0-----0-0-------1-3-4--|
      * *     * *     * *

E#|---------------------------------------------|
B#|---------------------------------------------|
G#|-----------7----------7----------7-----------|
D#|-----------5----------5----------5----4-3-1--|
A#|---0-0-0-0---0-0-0-0-----0-0-0-0------4-3-1--|
D#|---0-0-0-0---0-0-0-0-----0-0-0-0------4-3-1--|
      * * * *   * * * *     * * * *

(Chorus, "It's a Violent Pornography")

E#|------------------------------------------|
B#|------------------------------------------|
G#|------------------------------------------|
D#|---(0)-(4)-(5)-(7)-(8)-(10)-(12)--(8)-----|
A#|---(0)-(4)-(5)-(7)-(8)-(10)-(12)--(8)-----|
D#|---(0)-(4)-(5)-(7)-(8)-(10)-(12)--(8)-----|


E#|------------------------------------------------------|
B#|------------------------------------------------------|
G#|------------------------------------------------------|
D#|---0-000000---4-444444--5-555555--7-777777--8-888888--|
A#|---0-000000---4-444444--5-555555--7-777777--8-888888--|
D#|---0-000000---4-444444--5-555555--7-777777--8-888888--|
        ******     ******    *****     ******    ******


E#|--------------------------------------------------|
B#|--------------------------------------------------|
G#|--------------------------------------------------|
D#|--10-101010101010---12-121212121212---8-888888----|
A#|--10-101010101010---12-121212121212---8-888888----|
D#|--10-101010101010---12-121212121212---8-888888----|
        * * * * * *       * * * * * *      ******


(Verse)
E#|--------------------------|
B#|--------------------------|
G#|--------------------------|
D#|--7-8---8-9---9-8---8-7---|
A#|--5-6---6-7---7-6---6-5---|
D#|--------------------------|


("It's a non stop disco" part)
E#|------------------------------------------|
B#|------------------------------------------|
G#|-------7----------7----------7------------|
D#|-------5----------5----------5----1-3-4---|
A#|---0-0----0-0-0-0----0-0-0-0------1-3-4---|
D#|---0-0----0-0-0-0----0-0-0-0------1-3-4---|
      * *    * * * *    * * * *

E#|------------------------------------------|
B#|------------------------------------------|
G#|-------7----------7----------7------------|
D#|-------5----------5----------5----4-3-1---|
A#|---0-0----0-0-0-0----0-0-0-0------4-3-1---|
D#|---0-0----0-0-0-0----0-0-0-0------4-3-1---|
      * *    * * * *    * * * *

E#|------------------------------------|
B#|------------------------------------|
G#|-------7------7--------7------------|
D#|-------5------5--------5-----1-3-4--|
A#|---0-0-----0-0-----0-0-------1-3-4--|
D#|---0-0-----0-0-----0-0-------1-3-4--|
      * *     * *     * *

E#|---------------------------------------------|
B#|---------------------------------------------|
G#|-----------7----------7----------7-----------|
D#|-----------5----------5----------5----4-3-1--|
A#|---0-0-0-0---0-0-0-0-----0-0-0-0------4-3-1--|
D#|---0-0-0-0---0-0-0-0-----0-0-0-0------4-3-1--|
      * * * *   * * * *     * * * *


(Chorus, "It's a Violent Pornography")
E#|------------------------------------------|
B#|------------------------------------------|
G#|------------------------------------------|
D#|---(0)-(4)-(5)-(7)-(8)-(10)-(12)--(8)-----|
A#|---(0)-(4)-(5)-(7)-(8)-(10)-(12)--(8)-----|
D#|---(0)-(4)-(5)-(7)-(8)-(10)-(12)--(8)-----|
       +   +   +   +   +   +    +     +

E#|------------------------------------------|
B#|------------------------------------------|
G#|------------------------------------------|
D#|---(0)-(4)-(5)-(7)-(8)-(10)-(12)--(8)-----|
A#|---(0)-(4)-(5)-(7)-(8)-(10)-(12)--(8)-----|
D#|---(0)-(4)-(5)-(7)-(8)-(10)-(12)--(8)-----|
       +   +   +   +   +   +    +     +

E#|------------------------------------------------------|
B#|------------------------------------------------------|
G#|------------------------------------------------------|
D#|---0-000000---4-444444--5-555555--7-777777--8-888888--|
A#|---0-000000---4-444444--5-555555--7-777777--8-888888--|
D#|---0-000000---4-444444--5-555555--7-777777--8-888888--|
        ******     ******    *****     ******    ******


E#|--------------------------------------------------|
B#|--------------------------------------------------|
G#|--------------------------------------------------|
D#|--10-101010101010---12-121212121212---8-888888----|
A#|--10-101010101010---12-121212121212---8-888888----|
D#|--10-101010101010---12-121212121212---8-888888----|
        * * * * * *       * * * * * *      ******


E#|-------------------------------------------------|
B#|-------------------------------------------------|
G#|-------------------------------------------------|
D#|---(0)-(4)-(5)-(7)-(8)-(10)-(12)--(8)--(12)-(8)--|
A#|---(0)-(4)-(5)-(7)-(8)-(10)-(12)--(8)--(12)-(8)--|
D#|---(0)-(4)-(5)-(7)-(8)-(10)-(12)--(8)--(12)-(8)--|


(Intro)
E#|------------------------------------------------------|
B#|------------------------------------------------------|
G#|------------------------------------------------------|
D#|------------------------------------------------------|
A#|----9-10-10h12--13-12-10--13-12-10--9^10---13-17-13---|
D#|--0---------------------------------------------------|

E#|------------------------------------------------------|
B#|------------------------------------------------------|
G#|------------------------------------------------------|
D#|------------------------------------------------------|
A#|----9-10-10h12--13-12-10--13-12-10--9^10---13-17-15---|
D#|--0-------------------------------------------------0-|
Tap to rate this tab
 
# A B C D E F G H I J K L M N O P Q R S T U V W X Y Z