Song name
# A B C D E F G H I J K L M N O P Q R S T U V W X Y Z

System Of A Down - Soldier Side tab

Intro:

D----------------------------------------------------------------------|
A----------------------------------------------------------------------|
F------12----12----12----12----10----10----10----10-----9----9-----9---|
C-----0-----0-----0-----0-----0-----0-----0-----0-----0-----0-----0----|
G---13----13----13----13----12----12----12----12----12----12----12-----|
C----------------------------------------------------------------------|

D----------------------------------------------------------------------|
A----------------------------------------------------------------------|
F------9-----10----10----10----10----12---15---15---14-12---10---12----|
C-----0-----0-----0-----0-----0-----0----------------------0-----------|
G---12----12----12----12----12----13----13---13---13-----12----12------|
C----------------------------------------------------------------------|

D----------------------------------------------------------------------|
A----------------------------------------------------------------------|
F-----12----10-----9-----9-----9-----9-----10----10-10-10-10-10-10-10--|
C-----------------0-----0-----0-----0-----0-----0----0--0--0--0--0--0--|
G---12----12----12----12----12----12----12----12----12-12-12-12-12-12--|
C----------------------------------------------------------------------|

Verse:

D----------------------------------------------------------------------|
A----------------------------------------------------------------------|
F----------------------------------------------------------------------|
C---5-----3-2-0-----8-10-5-----3-2-0-----8-10--------------------------|
G---5-----3-2-0-----8-10-5-----3-2-0-----8-10--------------------------|
C---5-----3-2-0-----8-10-5-----3-2-0-----8-10--------------------------|

D--13-13-13-13-13-13-13-13-13-13-13-16-15-10-10-10-10-10-10-10-10-10-10-|
A--15-15-15-15-15-15-15-15-15-15-15-18-17-11-11-11-11-11-11-11-11-11-11-|
F-----------------------------------------------------------------------|
C-----------------------------------------------------------------------|
G-----------------------------------------------------------------------|
C-----------------------------------------------------------------------|

D-10-10-10-10-10-10--13-13-13-13-13-13-13-13-13-13-13-16-15-10-10-10-10-|
A-11-11-11-11-11-11--15-15-15-15-15-15-15-15-15-15-15-18-17-11-11-11-11-|
F-----------------------------------------------------------------------|
C-----------------------------------------------------------------------|
G-----------------------------------------------------------------------|
C-----------------------------------------------------------------------|

D-10-10-10-10-10-10-10-10-10-10-10-10----------------------------------|
A-11-11-11-11-11-11-11-11-11-11-11-11----------------------------------|
F----------------------------------------------------------------------|
C----------------------------------------------------------------------|
G----------------------------------------------------------------------|
C----------------------------------------------------------------------|

Chorus:
Guitar 1:

D-18-18-18-18-18-18-18-18-18-18-18-18-18-18-18-18--17-17-17-17-17-17-17-|
A-20-20-20-20-20-20-20-20-20-20-20-20-20-20-20-20--18-18-18-18-18-18-18-|
F-----------------------------------------------------------------------|
C-----------------------------------------------------------------------|
G-----------------------------------------------------------------------|
C-----------------------------------------------------------------------|

D-17-17-17-17-17-17-17-17--15-15-15-15-15-15-15-15-15-15-15-15-15-15-15-|
A-18-18-18-18-18-18-18-18--17-17-17-17-17-17-17-17-17-17-17-17-17-17-17-|
F-----------------------------------------------------------------------|
C-----------------------------------------------------------------------|
G-----------------------------------------------------------------------|
C-----------------------------------------------------------------------|

D-15--17-17-17-17-17-17-17-17-17-17-17-17-17-17-17-17--18-18-18-18-18--|
A-17--18-18-18-18-18-18-18-18-18-18-18-18-18-18-18-18--20-20-20-20-20--|
F----------------------------------------------------------------------|
C----------------------------------------------------------------------|
G----------------------------------------------------------------------|
C----------------------------------------------------------------------|

D-18-18-18-18-18-18-18-18-18-18-18--17-17-17-17-17-17-17-17-17-17-17-17-|
A-20-20-20-20-20-20-20-20-20-20-20--18-18-18-18-18-18-18-18-18-18-18-18-|
F-----------------------------------------------------------------------|
C-----------------------------------------------------------------------|
G-----------------------------------------------------------------------|
C-----------------------------------------------------------------------|

D-17-17-17-17--15-15-15-15-15-15-15-15-15-15-15-15-15-15-15-15--17-17--|
A-18-18-18-18--17-17-17-17-17-17-17-17-17-17-17-17-17-17-17-17--18-18--|
F----------------------------------------------------------------------|
C----------------------------------------------------------------------|
G----------------------------------------------------------------------|
C----------------------------------------------------------------------|

D-17-17-17-17-17-17-17-17-17-17-17-17-17-17----------------------------|
A-18-18-18-18-18-18-18-18-18-18-18-18-18-18----------------------------|
F----------------------------------------------------------------------|
C----------------------------------------------------------------------|
G----------------------------------------------------------------------|
C----------------------------------------------------------------------|

Guitar 2: plays in backround of guitar 1


D----------------------------------------------------------------------|
A----------------------------------------------------------------------|
F------12----12----12----12----10----10----10----10-----9----9-----9---|
C-----0-----0-----0-----0-----0-----0-----0-----0-----0-----0-----0----|
G---13----13----13----13----12----12----12----12----12----12----12-----|
C----------------------------------------------------------------------|

D----------------------------------------------------------------------|
A----------------------------------------------------------------------|
F------9-----10----10----10----10----12----12----12----12----10----10--|
C-----0-----0-----0-----0-----0-----0-----0-----0-----0-----0-----0----|
G---12----12----12----12----12----13----13----13----13----12----12-----|
C----------------------------------------------------------------------|

D----------------------------------------------------------------------|
A----------------------------------------------------------------------|
F------10----10----9-----9-----9-----9-----10----10----10----10--------|
C-----0-----0-----0-----0-----0-----0-----0-----0-----0-----0----------|
G---12----12----12----12----12----12----12----12----12----12-----------|
C----------------------------------------------------------------------|

Verse:

D----------------------------------------------------------------------|
A----------------------------------------------------------------------|
F----------------------------------------------------------------------|
C---5-----3-2-0-----8-10-5-----3-2-0-----8-10--------------------------|
G---5-----3-2-0-----8-10-5-----3-2-0-----8-10--------------------------|
C---5-----3-2-0-----8-10-5-----3-2-0-----8-10--------------------------|

D--13-13-13-13-13-13-13-13-13-13-13-16-15-10-10-10-10-10-10-10-10-10-10-|
A--15-15-15-15-15-15-15-15-15-15-15-18-17-11-11-11-11-11-11-11-11-11-11-|
F-----------------------------------------------------------------------|
C-----------------------------------------------------------------------|
G-----------------------------------------------------------------------|
C-----------------------------------------------------------------------|

D-10-10-10-10-10-10--13-13-13-13-13-13-13-13-13-13-13-16-15-10-10-10-10-|
A-11-11-11-11-11-11--15-15-15-15-15-15-15-15-15-15-15-18-17-11-11-11-11-|
F-----------------------------------------------------------------------|
C-----------------------------------------------------------------------|
G-----------------------------------------------------------------------|
C-----------------------------------------------------------------------|

D-10-10-10-10-10-10-10-10-10-10-10-10----------------------------------|
A-11-11-11-11-11-11-11-11-11-11-11-11----------------------------------|
F----------------------------------------------------------------------|
C----------------------------------------------------------------------|
G----------------------------------------------------------------------|
C----------------------------------------------------------------------|

Chorus:
Guitar 1:

D-18-18-18-18-18-18-18-18-18-18-18-18-18-18-18-18--17-17-17-17-17-17-17-|
A-20-20-20-20-20-20-20-20-20-20-20-20-20-20-20-20--18-18-18-18-18-18-18-|
F-----------------------------------------------------------------------|
C-----------------------------------------------------------------------|
G-----------------------------------------------------------------------|
C-----------------------------------------------------------------------|

D-17-17-17-17-17-17-17-17--15-15-15-15-15-15-15-15-15-15-15-15-15-15-15-|
A-18-18-18-18-18-18-18-18--17-17-17-17-17-17-17-17-17-17-17-17-17-17-17-|
F-----------------------------------------------------------------------|
C-----------------------------------------------------------------------|
G-----------------------------------------------------------------------|
C-----------------------------------------------------------------------|

D-15--17-17-17-17-17-17-17-17-17-17-17-17-17-17-17-17--18-18-18-18-18--|
A-17--18-18-18-18-18-18-18-18-18-18-18-18-18-18-18-18--20-20-20-20-20--|
F----------------------------------------------------------------------|
C----------------------------------------------------------------------|
G----------------------------------------------------------------------|
C----------------------------------------------------------------------|

D-18-18-18-18-18-18-18-18-18-18-18--17-17-17-17-17-17-17-17-17-17-17-17-|
A-20-20-20-20-20-20-20-20-20-20-20--18-18-18-18-18-18-18-18-18-18-18-18-|
F-----------------------------------------------------------------------|
C-----------------------------------------------------------------------|
G-----------------------------------------------------------------------|
C-----------------------------------------------------------------------|

D-17-17-17-17--15-15-15-15-15-15-15-15-15-15-15-15-15-15-15-15--17-17--|
A-18-18-18-18--17-17-17-17-17-17-17-17-17-17-17-17-17-17-17-17--18-18--|
F----------------------------------------------------------------------|
C----------------------------------------------------------------------|
G----------------------------------------------------------------------|
C----------------------------------------------------------------------|

D-17-17-17-17-17-17-17-17-17-17-17-17-17-17----------------------------|
A-18-18-18-18-18-18-18-18-18-18-18-18-18-18----------------------------|
F----------------------------------------------------------------------|
C----------------------------------------------------------------------|
G----------------------------------------------------------------------|
C----------------------------------------------------------------------|

Guitar 2: plays in backround of guitar 1


D----------------------------------------------------------------------|
A----------------------------------------------------------------------|
F------12----12----12----12----10----10----10----10-----9----9-----9---|
C-----0-----0-----0-----0-----0-----0-----0-----0-----0-----0-----0----|
G---13----13----13----13----12----12----12----12----12----12----12-----|
C----------------------------------------------------------------------|

D----------------------------------------------------------------------|
A----------------------------------------------------------------------|
F------9-----10----10----10----10----12----12----12----12----10----10--|
C-----0-----0-----0-----0-----0-----0-----0-----0-----0-----0-----0----|
G---12----12----12----12----12----13----13----13----13----12----12-----|
C----------------------------------------------------------------------|

D----------------------------------------------------------------------|
A----------------------------------------------------------------------|
F------10----10----9-----9-----9-----9-----10----10----10----10--------|
C-----0-----0-----0-----0-----0-----0-----0-----0-----0-----0----------|
G---12----12----12----12----12----12----12----12----12----12-----------|
C----------------------------------------------------------------------|

Solo:
Guitar 1

D-----------------------------------------------------------------------|
A-11-11-11-11-10-11-13-11-10-11-10-11-10-6-10-11-10-6-8-10-8-5-8-10-8-5-|
F-----------------------------------------------------------------------|
C-----------------------------------------------------------------------|
G-----------------------------------------------------------------------|
C-----------------------------------------------------------------------|

D----------------------------------------------------------------------|
A-6-5-3----------------------------------------------------------------|
F---------2-2-2-2-4-4-4-4-5-5-5-5-4-4-4-4------------------------------|
C----------------------------------------------------------------------|
G----------------------------------------------------------------------|
C----------------------------------------------------------------------|

D-----------------------------------------------------------------------|
A-11-11-11-11-10-11-13-11-10-11-10-11-10-6-10-11-10-6-8-10-8-5-8-10-8-5-|
F-----------------------------------------------------------------------|
C-----------------------------------------------------------------------|
G-----------------------------------------------------------------------|
C-----------------------------------------------------------------------|

D----------------------------------------------------------------------|
A-6-5-3----------------------------------------------------------------|
F---------2-2-2-2-4-4-4-4-5-5-5-5-4-4-4-4------------------------------|
C----------------------------------------------------------------------|
G----------------------------------------------------------------------|
C----------------------------------------------------------------------|

Guitar 2: plays in backround of guitar 1

D----------------------------------------------------------------------|
A----------------------------------------------------------------------|
F----------------------------------------------------------------------|
C---5-----3-2-0-----7-----0--2--3--2-----------------------------------|
G---5-----3-2-0-----7-----0--2--3--2-----------------------------------|
C---5-----3-2-0-----7-----0--2--3--2-----------------------------------|

D----------------------------------------------------------------------|
A----------------------------------------------------------------------|
F----------------------------------------------------------------------|
C---5-----3-2-0-----7-----0--2--3--2-----------------------------------|
G---5-----3-2-0-----7-----0--2--3--2-----------------------------------|
C---5-----3-2-0-----7-----0--2--3--2-----------------------------------|

Welcome to the Soldier Side:

D----------------------------------------------------------------------|
A----------------------------------------------------------------------|
F----------------------------------------------------------------------|
C---3--3--2--2--5--5--0--0--2--2--2--2--7--7--7--7---------------------|
G---3--3--2--2--5--5--0--0--2--2--2--2--7--7--7--7---------------------|
C---3--3--2--2--5--5--0--0--2--2--2--2--7--7--7--7---------------------|

D----------------------------------------------------------------------|
A----------------------------------------------------------------------|
F----------------------------------------------------------------------|
C---3--3--2--2--5--5--0--0--2--2--2--2--7--7--7--7---------------------|
G---3--3--2--2--5--5--0--0--2--2--2--2--7--7--7--7---------------------|
C---3--3--2--2--5--5--0--0--2--2--2--2--7--7--7--7---------------------|

D----------------------------------------------------------------------|
A----------------------------------------------------------------------|
F----------------------------------------------------------------------|
C---3--3--2--2--5--5--0--0--2--2--2--2--7--7--7--7---------------------|
G---3--3--2--2--5--5--0--0--2--2--2--2--7--7--7--7---------------------|
C---3--3--2--2--5--5--0--0--2--2--2--2--7--7--7--7---------------------|

D----------------------------------------------------------------------|
A----------------------------------------------------------------------|
F----------------------------------------------------------------------|
C---3--3--2--2--5--5--0--0--2--2--2--2--7--7--7--7---------------------|
G---3--3--2--2--5--5--0--0--2--2--2--2--7--7--7--7---------------------|
C---3--3--2--2--5--5--0--0--2--2--2--2--7--7--7--7---------------------|

Ending:

D----------------------------------------------------------------------|
A---10---10-11-10--9---9----11-13-15-13-11-10--10--9--9-----9----------|
F---x--------------x-------------------------------x-----9-------------|
C---x--------------x-------------------------------x-------------------|
G---8--8-----------7-7---7-10----------------8---8-7-7--7-7--7---------|
C----------------------------------------------------------------------|

D----------------------------------------------------------------------|
A---------------10-----------------------------------------------------|
F---------9------------------------------------------------------------|
C------7-----7---------------------------------------------------------|
G---0------------------------------------------------------------------|
C----------------------------------------------------------------------|
Tap to rate this tab
# A B C D E F G H I J K L M N O P Q R S T U V W X Y Z