Guitaretab - guitar tabs
Song name
# A B C D E F G H I J K L M N O P Q R S T U V W X Y Z

System Of A Down - Bring Your Own Bombs tab

Intro:

Eb--------------------------------|
Bb--------------------------------|
Gb--------------------------------|
Db7-0-0-0-0-0-0-0-7-0-0-8-0-0-7-0-|  x3
Ab--------------------------------|
Db--------------------------------|

Eb--------------------------------|
Bb--------------------------------|
Gb--------------------------------|
Db7-0-0-8-0-0-7-0-7-0-0-8-0-0-7-0-|  x3
Ab--------------------------------|
Db--------------------------------|

Riff 1

Eb----------------------------------------------------------|
Bb----------------------------------------------------------|
Gb----------------------------------------------------------|
Db------7-----8-----7-----8-----7-------7-----8-----9-10-12-|
Ab0-0-0-7-0-0-8-0-0-7-0-0-8-0-0-7-0-0-0-7-0-0-8-0-0-7-8-10--|
Db0-0-0-7-0-0-8-0-0-7-0-0-8-0-0-7-0-0-0-7-0-0-8-0-0---------|

Eb----------------------------------------------------------|
Bb----------------------------------------------------------|
Gb----------------------------------------------------------|
Db------7-----8-----7-----8-----7-------7-----8-----12-10-9-|   Repeat
Ab0-0-0-7-0-0-8-0-0-7-0-0-8-0-0-7-0-0-0-7-0-0-8-0-0-10-8-7--|
Db0-0-0-7-0-0-8-0-0-7-0-0-8-0-0-7-0-0-0-7-0-0-8-0-0---------|



Riff 2:

Eb-----------------------------------------|
Bb-----------------------------------------|
Gb-----------------------------------------|
Db--------------------------------------10-|
Ab--------------------------------------8--|
Db7-0-0-8-0-0-7-0-0-8-0-0-7-0-0-8-0-0-7----|

Eb-----------------------------------------|
Bb-----------------------------------------|
Gb-----------------------------------------|
Db------------------------12-10-9----------|   Repeat
Ab------------------------10-8-7-----------|
Db7-0-0-8-0-0-7-0-0-8-0-0------------------|

Riff 3:

Eb------------------------------------------------|
Bb------------------------------------------------|
Gb------------------------------------------------|
Db------------------------------------------------|
Ab------------------------------------------------|
Db7-0-0-8-0-0-7-0-0-8-0-0-7-0-0-8-0-0-7-0-0-8-0-0-|

Eb-----------------------------------------------|
Bb-----------------------------------------------|
Gb-----------------------------------------------|
Db--------------------------------------10-------|
Ab--------------------------------------8--------|
Db7-0-0-8-0-0-7-0-0-8-0-0-7-0-0-8-0-0-7----------|

Eb------------------------------------------------|
Bb------------------------------------------------|
Gb------------------------------------------------|
Db------------------------------------------------|
Ab------------------------------------------------|
Db7-0-0-8-0-0-7-0-0-8-0-0-7-0-0-8-0-0-7-0-0-8-0-0-|

Eb------------------------------------|
Bb------------------------------------|
Gb------------------------------------|
Db------------------------------------|
Ab------------------------5--3--2-3-2-|
Db7-0-0-8-0-0-7-0-0-8-0-0-5--3--2-3-2-|

Pre-chorus:

Eb------------------------------------------|
Bb------------------------------------------|
Gb------------------------------------------|
Db----------------------5-5-------3-2-0-----|
Ab0--0----2-3-5-3-2-0-2-3-3-0-3-0-------3-2-|
Db0--0--0-2-3-5-3-2-0-2-----------------3-2-|
[ Tab from: http://www.guitaretab.com/s/system-of-a-down/60230.html ]
Eb-----------------------------------------|
Bb-----------------------------------------|
Gb-----------------------------------------|
Db-----------------------------------------|
Ab0--0----5-7-8-7-5-3-5-3-2--3b5b3---------|
Db0--0--0-5-7-8-7-5-3-5-3-2----------------|

Chorus:

Eb---------------------------------------|
Bb---------------------------------------|
Gb---------------------------------------|
Db------------------------5-5-5--5--5-5--|
Ab0-0-0-X--0---0-0--0-0-0--3-3-3--3--3-3-|
Db0-0-0---0---0-0--0-0-0-----------------|

Eb---------------------------------------------|
Bb---------------------------------------------|
Gb---------------------------------------------|
Db---------------------------------------------|   Repeat
Ab0-0-0-X--0-----5-7-8-7-5-3-5-3-2-X3b5b3------|
Db0-0-0---0-----5-7-8-7-5-3-5-3-2--------------|


Riff 3

Eb------------------------------------------------|
Bb------------------------------------------------|
Gb------------------------------------------------|
Db------------------------------------------------|
Ab------------------------------------------------|
Db7-0-0-8-0-0-7-0-0-8-0-0-7-0-0-8-0-0-7-0-0-8-0-0-|

Eb-----------------------------------------------|
Bb-----------------------------------------------|
Gb-----------------------------------------------|
Db--------------------------------------10-------|
Ab--------------------------------------8--------|
Db7-0-0-8-0-0-7-0-0-8-0-0-7-0-0-8-0-0-7----------|

Eb------------------------------------------------|
Bb------------------------------------------------|
Gb------------------------------------------------|
Db------------------------------------------------|
Ab------------------------------------------------|
Db7-0-0-8-0-0-7-0-0-8-0-0-7-0-0-8-0-0-7-0-0-8-0-0-|

Eb------------------------------------|
Bb------------------------------------|
Gb------------------------------------|
Db------------------------12-10-9-----|
Ab------------------------10-8-7------|
Db7-0-0-8-0-0-7-0-0-8-0-0-------------|




Riff 4 (Daron does his little crazy screaming thing)

Eb-------------------------------------------|
Bb-------------------------------------------|
Gb-------------------------------------------|
Db-------------------------------------------|   x3
Ab7-7-7-7-7-7-7-7----7-7---7-7-5-------------|
Db7-7-7-7-7-7-7-7-10-7-7-8-7-7-5-------------|

Riff 5

Eb-----------------------------------------------------|
Bb-----------------------------------------------------|
Gb-----------------------------------------------------|
Db7-7-7-7-3-3-3-3-2-2-2-2------------------------------|   x3
Ab5-5-5-5-1-1-1-1-0-0-0-0-7-0-0-8-0-X0-7-0-0-----------|
Db-----------------------------------------------------|

Riff 6

Eb---------------------------------------------|
Bb---------------------------------------------|
Gb---------------------------------------------|
Db--------------------------------- Repeat x 3-|
Ab0-0-0-0-0-0-0-0-7-0-0-8-0-X0-7-0-0-----------|
Db---------------------------------------------|



Eb---------------------------|
Bb---------------------------|
Gb---------------------------|
Db---------------------------|
Ab12-11-10-9-8-7-6-5-4-3-2-1-|
Db---------------------------|

Riff 7

Tremolo picking
Eb-------------------------------------------------------|
Bb-------------------------------------------------------|
Gb-------------------------------------------------------|   x4
Db-------------------------------------------------------|
Ab0-0-0-0-7-0-0-0-0-0-0-0X0-7-0-0-8-0-0-7-0-0-----------|
Db-------------------------------------------------------|


Thats it! Please rate.
Related for Bring Your Own Bombs tab