Song name
# A B C D E F G H I J K L M N O P Q R S T U V W X Y Z

System Of A Down - Time Alone tab

This is the song that Darron plays after "Prison Song live" and before "Know". They only play it live.

-----1-------3-1-0---------------------------|
--------3------------------------------------|
-----------2---------5-------3---------5-----|
--0------------------------3----3---5----5---|(x2)
-------------------------1---------3---------|
---------------------------------------------|

-----1-------1----1--------------------------|
--------3------------------------------------|
-----------2----1---------3--------3---------|
--0--------------------------3--------3------|
----------------------0-1------1-------------|
---------------------------------------------|
    Just when you make, your way back home,
-----1-------3-1-0---------------------------|
--------3------------------------------------|
-----------2---------5-------3-----5---------|
 --0------------------------3-----5-----------|
-------------------------1-----3-------------|
---------------------------------------------|

-----1-------1-------1-----------------------|
--------3-------3----------------------------|
-----------2-------2--------------------5----|
--0--------------------------7-------5----5--|
--------------------------5-----5-3----------|
---------------------------------------------|
       I find some time to be alone,
-----1-------3-1-0---------------------------|
--------3------------------------------------|
-----------2---------5-------3---------5-----|
--0------------------------3----3---5----5---|
-------------------------1---------3---------|
---------------------------------------------|

-----1-------1------1-------------------------|
--------3-------------------------------------|
-----------2-------2--------3--------33-------|
--0-------------------------------------------|
-------------------------1-------1------------|
----------------------------------------------|
        I go to see, the place once more,
-----1-------3-1-0---------------------------|
--------3------------------------------------|
-----------2---------5-------3---------5-----|
--0------------------------3----3---5----5---|
-------------------------1---------3---------|
---------------------------------------------|

----1------1-------1-------------------------|
------3-------3------------------------------|
---------2-------2---------3---------3-------|
--x----------------------3----3----3---3-----|
-----------------------1---------1-----------|
---------------------------------------------|
     just like a thousand nights before.
--------1---------0--------0---------1-------|
-----3----3----3---3---3----3----3---3-------|
--2----------2--------2---------2------------|
---------------------------------------------|
---------------------------------------------|
---------------------------------------------|

Any questions just e-mail me at:

Adam_Musial@hotmail.com

Or leave a comment.
Tap to rate this tab
 
# A B C D E F G H I J K L M N O P Q R S T U V W X Y Z