Guitaretab - guitar tabs
Song name
# A B C D E F G H I J K L M N O P Q R S T U V W X Y Z

System Of A Down - Tentative tab

Db-Ab-Db-Gb-Bb-Eb (low to high)

Intro/Verse

e|--------------------------------------------|
B|--8-8--------------8-8-8--------------------|
G|--6-6--------------6-6-6--------------------|
D|--7-7--------------7-7-7--------------------|
A|--5-5--------------5-5-5--------------------|
E|------0-0-0-0-0-0--------0-0-0-0-0-0-0-0-0--|

Pre-Chorus
[ Tab from: http://www.guitaretab.com/s/system-of-a-down/65806.html ]
e|-----------------------------------------------------------------|
B|-----------------------------------------------------------------|
G|-----------------------------------------------------------------|
D|-----------------------------------------------------------------|
A|-0-0--0-0-0-0-0--0-0--0-0-0-0-0--8-8--8-8-8-8-8--8-8--8-8-8-8-8--|
E|-0-0--0-0-0-0-0--0-0--0-0-0-0-0--8-8--8-8-8-8-8--8-8--8-8-8-8-8--|

e|-----------------------------------------------|
B|-----------------------------------------------|
G|-10-10--10-10-10-10-10--10-10--10-10-10-10-10--|
D|-10-10--10-10-10-10-10--10-10--10-10-10-10-10--|
A|-8--8---8--8--8--8--8---8--8---8--8--8--8--8---|
E|-----------------------------------------------|

e|---------------------------------|
B|---------------------------------|
G|---------------------------------|
D|---------------------------------|
A|-7-7--7-7-7-7-7--7-7--7-7-7-7-7--|
E|-7-7--7-7-7-7-7--7-7--7-7-7-7-7--|

Chorus

e|---------------------------------|
B|---------------------------------|
G|-------------------------10------|
D|-0-------8-------7-------10------|
A|-0-------8-------7-------8----8--|
E|-0-------8-------7------------8--|
Related for Tentative tab
Tentative chords by System Of A Down