Song name
# A B C D E F G H I J K L M N O P Q R S T U V W X Y Z

System Of A Down - Stealing Society tab

-------------------------------------------------------------------------------
			     Stealing Society Tab - System of A Down
-------------------------------------------------------------------------------
Tabbed by: Eddyous
Email: pso_fanatic002@yahoo.com(or)pso_fanatic@hotmail.com

Tuning: Normal

e|---------------------------------------------------------------------------------------------------------------|
B|---------------------------------------------------------------------------------------------------------------|
G|---------------------------------------------------------------------------------------------------------------|
D|--6-6-6-5-6-6-6-5-6-6-6-5-5----6-6-6-5-6-6-6-5-6-6-6-5-5----6-6-6-5-5--6-6-6-5-5----6-6-6-5-6-6-6-5-6-6-6-5-5--|
A|--6-6-6-5-6-6-6-5-6-6-6-5-5----6-6-6-5-6-6-6-5-6-6-6-5-5----6-6-6-5-5--6-6-6-5-5----6-6-6-5-6-6-6-5-6-6-6-5-5--|
E|--4-4-4-3-4-4-4-3-4-4-4-3-3----4-4-4-3-4-4-4-3-4-4-4-3-3----4-4-4-3-3--4-4-4-3-3----4-4-4-3-4-4-4-3-4-4-4-3-3--|

e|-----------------------------------------------------------------------------------------------------------------------------------|
B|-----------------------------------------------------------------------------------------------------------------------------------|
G|-----------------------------------------------------------------------------------------------------------------------------------|
D|-----------------------------------------------------------------------------------------------------------------------------------|
A|-----------------------------------------------------------------------------------------------------------------------------------|
E|-3-4-3-3-3-4-3-3-6-6-4-3-1-1-3-4---3-4-3-3-3-4-3-3-6-6-4-3-1-1-3-4---3-4-3-3-3-4-3-3-6-6-4-3-1-1-3-4--3-4-3-3-3-4-3-3-6-4-3-1-3-4--|

e|------------------------------------------------------------------------------------|
B|------------------------------------------------------------------------------------|
G|------------------------------------------------------------------------------------|
D|------------------------------------------------------------------------------------|
A|------------------------------------------------------------------------------------|
E|-10-10-10-10-11-10-10-10-10-10-10-10-11-10-10-10-9-9-9-9-10-9-9-9-9-9-9-9-10-9-9-9--|
                                       (X2)

e|---------------------------------------------------------------------------|
B|---------------------------------------------------------------------------|
G|-------------------10-10-10-10---------------------------------------------|
D|-8-8-8-8--5-5-5-5--10-10-10-10--8-8-8-8------------------------------------|
A|-8-8-8-8--5-5-5-5---8--8--8--8--8-8-8-8------------------------------------|
E|-6-6-6-6--3-3-3-3---------------6-6-6-6------------------------------------|

e|----------------------------------------------------------------------------------------------------|
B|----------------------------------------------------------------------------------------------------|
G|----------------------------------------------------------------------------------------------------|
D|-----------------------------12-12-12-12-12-12-12-----------------------------13-13-13-13-13-13-13--|
A|-----------------------------12-12-12-12-12-12-12-----------------------------13-13-13-13-13-13-13--|
E|--10-10-10-10-10-10-10-10-10-10-10-10-10-10-10-10--11-11-11-11-11-11-11-11-11-11-11-11-11-11-11-11--|

e|---------------------------------------------|
B|---------------------------------------------|
G|---------------------------------------------|
D|-8-8-8-8--5-5-5-5--12-12-12-12--13-13-13-13--|
A|-8-8-8-8--5-5-5-5--12-12-12-12--13-13-13-13--|
E|-6-6-6-6--3-3-3-3--10-10-10-10--11-11-11-11--|

e|----------------------------------------------------------------------------------------------------|
B|----------------------------------------------------------------------------------------------------|
G|----------------------------------------------------------------------------------------------------|
D|-----------------------------12-12-12-12-12-12-12-----------------------------13-13-13-13-13-13-13--|
A|-----------------------------12-12-12-12-12-12-12-----------------------------13-13-13-13-13-13-13--|
E|--10-10-10-10-10-10-10-10-10-10-10-10-10-10-10-10--11-11-11-11-11-11-11-11-11-11-11-11-11-11-11-11--|

e|-------------------------------------------------------------|
B|-------------------------------------------------------------|
G|-------------------------------------------------------------|
D|-------------------------------------------------------------|
A|-------------------------------------------------------------|
E|--3-4-3--3-4-3--3-4-3--3-4-3--3-4-3--3-4-3--6-6-4-3-1-1-3-4--|

e|------------------------------------------------------------------------------------|
B|------------------------------------------------------------------------------------|
G|------------------------------------------------------------------------------------|
D|------------------------------------------------------------------------------------|
A|------------------------------------------------------------------------------------|
E|-10-10-10-10-11-10-10-10-10-10-10-10-11-10-10-10-9-9-9-9-10-9-9-9-9-9-9-9-10-9-9-9--|

e|---------------------------------------------------------------------------|
B|---------------------------------------------------------------------------|
G|-------------------10-10-10-10---------------------------------------------|
D|-8-8-8-8--5-5-5-5--10-10-10-10--8-8-8-8------------------------------------|
A|-8-8-8-8--5-5-5-5---8--8--8--8--8-8-8-8------------------------------------|
E|-6-6-6-6--3-3-3-3---------------6-6-6-6------------------------------------|

e|----------------------------------------------------------------------------------------------------|
B|----------------------------------------------------------------------------------------------------|
G|----------------------------------------------------------------------------------------------------|
D|-----------------------------12-12-12-12-12-12-12-----------------------------13-13-13-13-13-13-13--|
A|-----------------------------12-12-12-12-12-12-12-----------------------------13-13-13-13-13-13-13--|
E|--10-10-10-10-10-10-10-10-10-10-10-10-10-10-10-10--11-11-11-11-11-11-11-11-11-11-11-11-11-11-11-11--|

e|---------------------------------------------|
B|---------------------------------------------|
G|---------------------------------------------|
D|-8-8-8-8--5-5-5-5--12-12-12-12--13-13-13-13--|
A|-8-8-8-8--5-5-5-5--12-12-12-12--13-13-13-13--|
E|-6-6-6-6--3-3-3-3--10-10-10-10--11-11-11-11--|

e|----------------------------------------------------------------------------------------------------|
B|----------------------------------------------------------------------------------------------------|
G|----------------------------------------------------------------------------------------------------|
D|-----------------------------12-12-12-12-12-12-12-----------------------------13-13-13-13-13-13-13--|
A|-----------------------------12-12-12-12-12-12-12-----------------------------13-13-13-13-13-13-13--|
E|--10-10-10-10-10-10-10-10-10-10-10-10-10-10-10-10--11-11-11-11-11-11-11-11-11-11-11-11-11-11-11-11--|

e|----------------------------------------------------------|
B|----------------------------------------------------------|
G|----------------------------------------------------------|
D|--5--12--13-13-13-13-13-13-13-13-13-13-13-13-13-13-13-13--|
A|--5--12--13-13-13-13-13-13-13-13-13-13-13-13-13-13-13-13--|
E|--3--10--11-11-11-11-11-11-11-11-11-11-11-11-11-11-11-11--|

e|----------------------------------------------------------|
B|----------------------------------------------------------|
G|----------------------------------------------------------|
D|--5--12--13-13-13-13-13-13-13-13-13-13-13-13-13-13-13-13--|
A|--5--12--13-13-13-13-13-13-13-13-13-13-13-13-13-13-13-13--|
E|--3--10--11-11-11-11-11-11-11-11-11-11-11-11-11-11-11-11--|

e|-------------------------------------------------------------------------------------------|
B|-------------------------------------------------------------------------------------------|
G|-------------------------------------------------------------------------------------------|
D|--5-5-5-5-5-5-5-5-13-13-13-13-13-13-13-13-12-12-12-12-12-12-12-12-16-16-16-16-16-16-16-16--|
A|--5-5-5-5-5-5-5-5-13-13-13-13-13-13-13-13-12-12-12-12-12-12-12-12-16-16-16-16-16-16-16-16--|
E|--3-3-3-3-3-3-3-3-11-11-11-11-11-11-11-11-10-10-10-10-10-10-10-10-14-14-14-14-14-14-14-14--|

e|-------------------------------------------------------------------------------------------|
B|-------------------------------------------------------------------------------------------|
G|-------------------------------------------------------------------------------------------|
D|--5-5-5-5-5-5-5-5-13-13-13-13-13-13-13-13-12-12-12-12-12-12-12-12-16-16-16-16-16-16-16-16--|
A|--5-5-5-5-5-5-5-5-13-13-13-13-13-13-13-13-12-12-12-12-12-12-12-12-16-16-16-16-16-16-16-16--|
E|--3-3-3-3-3-3-3-3-11-11-11-11-11-11-11-11-10-10-10-10-10-10-10-10-14-14-14-14-14-14-14-14--|

e|--------------------------------------------------------------------------------------------------------------------------------|
B|--------------------------------------------------------------------------------------------------------------------------------|
G|--------------------------------------------------------------------------------------------------------------------------------|
D|--8-8-8-5-5-5-15-15-15-8-8-8---12-12-12-12-12-12-12-12-12-12-12-12-12-12-12-12-13-13-13-13-13-13-13-13-13-13-13-13-13-13-13-13--|
A|--8-8-8-5-5-5-15-15-15-8-8-8---12-12-12-12-12-12-12-12-12-12-12-12-12-12-12-12-13-13-13-13-13-13-13-13-13-13-13-13-13-13-13-13--|
E|--6-6-6-3-3-3-13-13-13-6-6-6---10-10-10-10-10-10-10-10-10-10-10-10-10-10-10-10-11-11-11-11-11-11-11-11-11-11-11-11-11-11-11-11--|

e|--------------------------------------------------------------------------------------------------------------------------------|
B|--------------------------------------------------------------------------------------------------------------------------------|
G|--------------------------------------------------------------------------------------------------------------------------------|
D|--8-8-8-5-5-5-15-15-15-8-8-8---12-12-12-12-12-12-12-12-12-12-12-12-12-12-12-12-13-13-13-13-13-13-13-13-13-13-13-13-13-13-13-13--|
A|--8-8-8-5-5-5-15-15-15-8-8-8---12-12-12-12-12-12-12-12-12-12-12-12-12-12-12-12-13-13-13-13-13-13-13-13-13-13-13-13-13-13-13-13--|
E|--6-6-6-3-3-3-13-13-13-6-6-6---10-10-10-10-10-10-10-10-10-10-10-10-10-10-10-10-11-11-11-11-11-11-11-11-11-11-11-11-11-11-11-11--|


e|-------------------------------------------------------------|
B|-------------------------------------------------------------|
G|-------------------------------------------------------------|
D|-------------------------------------------------------------|
A|-------------------------------------------------------------|
E|--3-4-3--3-4-3--3-4-3--3-4-3--3-4-3--3-4-3--3-4-3--3-4-3-----|

e|---------------------------------------------------------------------------------------------------|
B|---------------------------------------------------------------------------------------------------|
G|---------------------------------------------------------------------------------------------------|
D|--12-12-12-12-12-12-12-12-12-12-12-12-12-12-12-12-13-13-13-13-13-13-13-13-13-13-13-13-13-13-13-13--|
A|--12-12-12-12-12-12-12-12-12-12-12-12-12-12-12-12-13-13-13-13-13-13-13-13-13-13-13-13-13-13-13-13--|
E|--10-10-10-10-10-10-10-10-10-10-10-10-10-10-10-10-11-11-11-11-11-11-11-11-11-11-11-11-11-11-11-11--|

e|-------------------------------------------------------------|
B|-------------------------------------------------------------|
G|-------------------------------------------------------------|
D|-------------------------------------------------------------|
A|-------------------------------------------------------------|
E|--3-4-3--3-4-3--3-4-3--3-4-3--3-4-3--3-4-3--3-4-3--3-4-3-----|

e|---------------------------------------------------------------------------------------------------|
B|---------------------------------------------------------------------------------------------------|
G|---------------------------------------------------------------------------------------------------|
D|--12-12-12-12-12-12-12-12-12-12-12-12-12-12-12-12-13-13-13-13-13-13-13-13-13-13-13-13-13-13-13-13--|
A|--12-12-12-12-12-12-12-12-12-12-12-12-12-12-12-12-13-13-13-13-13-13-13-13-13-13-13-13-13-13-13-13--|
E|--10-10-10-10-10-10-10-10-10-10-10-10-10-10-10-10-11-11-11-11-11-11-11-11-11-11-11-11-11-11-11-11--|
                                 (X3)

e|---------------------------------------------------------------------------------------------------------------|
B|---------------------------------------------------------------------------------------------------------------|
G|---------------------------------------------------------------------------------------------------------------|
D|--6-6-6-5-6-6-6-5-6-6-6-5-5----6-6-6-5-6-6-6-5-6-6-6-5-5----6-6-6-5-5--6-6-6-5-5----6-6-6-5-6-6-6-5-6-6-6-5-5--|
A|--6-6-6-5-6-6-6-5-6-6-6-5-5----6-6-6-5-6-6-6-5-6-6-6-5-5----6-6-6-5-5--6-6-6-5-5----6-6-6-5-6-6-6-5-6-6-6-5-5--|
E|--4-4-4-3-4-4-4-3-4-4-4-3-3----4-4-4-3-4-4-4-3-4-4-4-3-3----4-4-4-3-3--4-4-4-3-3----4-4-4-3-4-4-4-3-4-4-4-3-3--|


It took me like 3 hours so I hope you enjoy it (I'm still not in a playing level nor have an electric guitar to do the bridge thing)


| /  slide up
|   slide down
| h  hammer-on
| p  pull-off
| ~  vibrato
| +  harmonic
| x  Mute note
===============================================================================
Tap to rate this tab
# A B C D E F G H I J K L M N O P Q R S T U V W X Y Z