Song name
# A B C D E F G H I J K L M N O P Q R S T U V W X Y Z

System Of A Down - Mr Jack Live tab

Here it is
btw this is d_ICEMANs work. Forgot to add this part here. So all the credits go to him, 
just thought he wouldn't upload it here, so I decided to upload it for you people here.


D#||------|------|------|------|------|------------------|------------------|
A#||------|------|------|------|------|------------------|------------------|
F#||------|------|------|------|------|------------------|------------------|
C#||------|------|------|------|------|------------------|------------------|
G#||------|------|------|------|------|------------------|------------------|
C#||------|------|------|------|------|------------------|------------------|

------------------|------------------|------------------|------------------|
------------------|------------------|------------------|------------------|
------------------|------------------|------------------|------------------|
------------------|------------------|------------------|------------------|
------------------|------------------|------------------|------------------|
------------------|------------------|------------------|------------------|

------------------|------------------|------------------|------------------|
------------------|------------------|------------------|------------------|
------------------|------------------|------------------|------------------|
------------------|------------------|------------------|------------------|
------------------|------------------|------------------|------------------|
------------------|------------------|------------------|------------------|

-------------------|---------------------|--------------------------|
----------------8--|--7-----------7---8--|--10r-----------10--12-13r|
----------------0--|--7------------------|--------------------------|
-------------------|---------------------|--------------------------|
-------------------|---------------------|--------------------------|
-------------------|---------------------|--------------------------|

---------------------------------------|------------------------------15--14----|
--------12-13-15-13--12-12h13h12-------|-----------------131314141515--------15-|
---------------------------------14-16-|--14-12-11r-----------------------------|
---------------------------------------|----------------------------------------|
---------------------------------------|----------------------------------------|
---------------------------------------|----------------------------------------|

----------------------------|------------------14--15--|
--13b---------12-13-15r--13-|--15r---------17----------|
----------------------------|--------------------------|
----------------------------|--------------------------|
----------------------------|--------------------------|
----------------------------|--------------------------|

--17-15-14-15-14h15----14-15-17-15-14-15-14h15----14-15-|
--------------------17-------------------------17-------|
--------------------------------------------------------|
--------------------------------------------------------|
--------------------------------------------------------|
--------------------------------------------------------|

--17-15-14-15-14h15----14----------14-15-14h15-------|
--------------------17----17-15-17-------------17-8--|
--------------------------------------------------0--|
-----------------------------------------------------|
-----------------------------------------------------|
-----------------------------------------------------|

--------------------------|------------------------------------|
--7----7----7----7----8---|--10----10----10----10----10--10-12-|
--7----7----7----7----7---|--7-----7-----7-----7-----7---------|
----------0----0----0-----|------0-----0-----0-----0-----------|
--------------------------|------------------------------------|
--------------------------|------------------------------------|

---------------------------------------------|
--13b-13b-13b-12-13-15-13--12-12h13h12-------|
---------------------------------------14-16-|
---------------------------------------------|
---------------------------------------------|
---------------------------------------------|

--------------------------15--14----|----------------------------|
-------------131314141515--------15-|--13b---------12-13-15r--13-|
--14-12-11r-------------------------|----------------------------|
------------------------------------|----------------------------|
------------------------------------|----------------------------|
------------------------------------|----------------------------|

------------------14--15--|
--15r---------17----------|
--------------------------|
--------------------------|
--------------------------|
--------------------------|

--17-15-14-15-14h15----14-15-17-15-14-15-14h15----14-15-|
--------------------17-------------------------17-------|
--------------------------------------------------------|
--------------------------------------------------------|
--------------------------------------------------------|
--------------------------------------------------------|

--17-15-14-15-14h15----14----------14-15-14h15----14-15-|--1717171717171717117|
--------------------17----17-15-17-------------17-------|---------------------|
--------------------------------------------------------|---------------------|
--------------------------------------------------------|---------------------|
--------------------------------------------------------|---------------------|
--------------------------------------------------------|---------------------|

--1717171717171717|171717171717171717|17171717171717--14-15-|
------------------|------------------|----------------------|
------------------|------------------|----------------------|
------------------|------------------|----------------------|
------------------|------------------|----------------------|
------------------|------------------|----------------------|

--14h15h14--14-15-14h15h14-14-15-17-15-14-15-14h15----14-15---|
--------------------------------------------------17----------|
--------------------------------------------------------------|
--------------------------------------------------------------|
--------------------------------------------------------------|
--------------------------------------------------------------|

--14h15h14-14-15-14h15h14-14-15-17-15-14-15h14h15----14-15-|
--------------------------------------------------17-------|
-----------------------------------------------------------|
-----------------------------------------------------------|
-----------------------------------------------------------|
-----------------------------------------------------------|

--17-15-14-15h14h15----14-15-17-15-14-15h14h15----14-15-|
--------------------17-------------------------17-------|
--------------------------------------------------------|
--------------------------------------------------------|
--------------------------------------------------------|
--------------------------------------------------------|

--17-15-14-15h14h15----15-15-----------|-------------------------|
--------------------17-------15r-------|-------------------------|
---------------------------------------|-------2-----------------|
---------------------------------------|-------2----3----3-3-3-3-|
---------------------------------------|--0----0----3----1-0-1-0-|
---------------------------------------|--0---------3------------|

------------------------|-------------------------|------------------------|
------------------------|-------------------------|------------------------|
-------2----------------|-------2-----------------|-------2----------------|
-------2----3----3-3-3--|-------2----3----3-3-3-3-|-------2----3----3-3-3--|
--0----0----3----1-0-1--|--0----0----3----1-0-1-0-|--0----0----3----1-0-1--|
--0---------3-----------|--0---------3------------|--0---------3-----------|

-------------------------|------------------------|-------------------------|
-------------------------|------------------------|-------------------------|
-------2-----------------|-------2----------------|-------2-----------------|
-------2----3----3-3-3-3-|-------2----3----3-3-3--|-------2----3----3-3-3-3-|
--0----0----3----1-0-1-0-|--0----0----3----1-0-1--|--0----0----3----1-0-1-0-|
--0---------3------------|--0---------3-----------|--0---------3------------|


                         PM_________________________________________________
------------------------|-------------------------|------------------------|
------------------------|-------------------------|------------------------|
-------2----------------|-------------------------|------------------------|
-------2----3----3-3-3--|-------2---------3-3-3-3-|-------2---------3-3-3--|
--0----0----3----1-0-1--|--0----0----3----1-0-1-0-|--0----0----3----1-0-1--|
--0---------3-----------|--0---------3------------|--0---------3-----------|


  PM________________________________________________________________________
-------------------------|------------------------|-------------------------|
-------------------------|------------------------|-------------------------|
-------------------------|------------------------|-------------------------|
-------2---------3-3-3-3-|-------2---------3-3-3--|-------2---------3-3-3-3-|
--0----0----3----1-0-1-0-|--0----0----3----1-0-1--|--0----0----3----1-0-1-0-|
--0---------3------------|--0---------3-----------|--0---------3------------|

PM__________________________________________________________________________

------------------------|-------------------------|------------------------|
------------------------|-------------------------|------------------------|
------------------------|-------------------------|------------------------|
-------2---------3-3-3--|-------2---------3-3-3-3-|-------2---------3-3-3--|
--0----0----3----1-0-1--|--0----0----3----1-0-1-0-|--0----0----3----1-0-1--|
--0---------3-----------|--0---------3------------|--0---------3-----------|

-------------------------|------------------------|-------------------------|
-------------------------|------------------------|-------------------------|
-------2-----------------|-------2----------------|-------2-----------------|
-------2----3----3-3-3-3-|-------2----3----3-3-3--|-------2----3----3-3-3-3-|
--0----0----3----1-0-1-0-|--0----0----3----1-0-1--|--0----0----3----1-0-1-0-|
--0---------3------------|--0---------3-----------|--0---------3------------|


                         PM________________________________________________
------------------------|-------------------------|------------------------|
------------------------|-------------------------|------------------------|
-------2----------------|-------------------------|------------------------|
-------2----3----3-3-3--|-------2---------3-3-3-3-|-------2---------3-3-3--|
--0----0----3----1-0-1--|--0----0----3----1-0-1-0-|--0----0----3----1-0-1--|
--0---------3-----------|--0---------3------------|--0---------3-----------|


 PM___________________________________________________________________________
-------------------------|------------------------|-------------------------|
-------------------------|------------------------|-------------------------|
-------------------------|------------------------|-------------------------|
-------2---------3-3-3-3-|-------2---------3-3-3--|-------2---------3-3-3-3-|
--0----0----3----1-0-1-0-|--0----0----3----1-0-1--|--0----0----3----1-0-1-0-|
--0---------3------------|--0---------3-----------|--0---------3------------|

PM__________________________________________________________________________
------------------------|-------------------------|------------------------|
------------------------|-------------------------|------------------------|
------------------------|-------------------------|------------------------|
-------2---------3-3-3--|-------2---------3-3-3-3-|-------2---------3-3-3--|
--0----0----3----1-0-1--|--0----0----3----1-0-1-0-|--0----0----3----1-0-1--|
--0---------3-----------|--0---------3------------|--0---------3-----------|

-------------------------|------------------------|-------------------------|
-------------------------|------------------------|-------------------------|
-------2-----------------|-------2----------------|-------2-----------------|
-------2----3----3-3-3-3-|-------2----3----3-3-3--|-------2----3----3-3-3-3-|
--0----0----3----1-0-1-0-|--0----0----3----1-0-1--|--0----0----3----1-0-1-0-|
--0---------3------------|--0---------3-----------|--0---------3------------|

------------------------|-------------------------|------------------------|
------------------------|-------------------------|------------------------|
-------2----------------|-------2-----------------|-------2----------------|
-------2----3----3-3-3--|-------2----3----3-3-3-3-|-------2----3----3-3-3--|
--0----0----3----1-0-1--|--0----0----3----1-0-1-0-|--0----0----3----1-0-1--|
--0---------3-----------|--0---------3------------|--0---------3-----------|

-------------------------|------------------------|
-------------------------|------------------------|
-------2-----------------|-------2----------------|
-------2----3----3-3-3-3-|-------2----3----3-3-3--|
--0----0----3----1-0-1-0-|--0----0----3----1-0-1--|
--0---------3------------|--0---------3-----------|

-------------------------------|----------------------------|
-------------------------------|----------------------------|
-----10/9---9/7---7----7--8-7--|-----5----5----7----7----7--|
--0-------0-----0----0---------|--0-----0----0----0----0----|
-------------------------------|----------------------------|
-------------------------------|----------------------------|

-------------------------------|----------------------------|
-------------------------------|----------------------------|
-----10/9---9/7---7----7--8-7--|-----5----5----7----7----7--|
--0-------0-----0----0---------|--0-----0----0----0----0----|
-------------------------------|----------------------------|
-------------------------------|----------------------------|

------------------------------|---------------------------------|
----------3--3--5-3---3-3--3--|--5-3---3------------------------|
--0-2-4-5-----------5---------|------5---5-3-5-3-3-5-3-2-3-2-0--|
------------------------------|---------------------------------|
------------------------------|---------------------------------|
------------------------------|---------------------------------|

------------------------------|-------------------------------|
----------3--3--5-3---3-3--3--|--5-3---3----------------------|
--0-2-4-5-----------5---------|------5---5-3-5-3-3-5-3-2-3-2/-|
------------------------------|-------------------------------|
------------------------------|-------------------------------|
------------------------------|-------------------------------|

-----------------------------------|--------------------------------------|
-----------------------------------|--------------------------------------|
--7-5-7h5h4-4-5-4h5h4-2-4-2-0-2----|--7-5-7h5h4-4-5-4h5h4-2-4-2-0-2-2-2-2-|
-----------------------------------|--------------------------------------|
-----------------------------------|--------------------------------------|
-----------------------------------|--------------------------------------|

----------------------------------|------------------------------------------|
----------3-----------------------|------------------------------------------|
--0-2-4-5---5-4-2-4-2-0-2-0-2-0-2-|--3h2h0-3-0-3h2h0-3-0-3h2h0-3-0-3h2h0-3-0-|
----------------------------------|------------------------------------------|
----------------------------------|------------------------------------------|
----------------------------------|------------------------------------------|

--------------------------------------------------|
--------------------------------------------------|
--5-0-0-3-0-0-2-0-0-3-0-0-5-0-0-7-0-0-5-0-0-3-0-0-|
--------------------------------------------------|
--------------------------------------------------|
--------------------------------------------------|

----------------------------------------------------|
----------------------------------------------------|
--5-0-0-3-0-0-2-0-0-3-0-0-7-0-0-9-0-0-11-0-0-12-0-0-|
----------------------------------------------------|
----------------------------------------------------|
----------------------------------------------------|

----------------------------------------------------|
----------------------------------------------------|
--12-0-0-11-0-0-9-0-0-7-0-0-9-0-0-7-0-0-5-0-0-7-0-0-|
----------------------------------------------------|
----------------------------------------------------|
----------------------------------------------------|

-----------------------------------------|
-----------------------------------------|
--5-0-0-3-0-0-2-0-0-3-0-0-2-3-0-3-2-3----|
---------------------------------------3/|
-----------------------------------------|
-----------------------------------------|

--------------------------------------------------------|
--------------------------------------------------------|
--------------------------------------------------------|
--9-7--5--x-x-7--x-x-x-5--7--x-x-7--5--x-x-7--x-x-5--7--|
--------------------------------------------------------|
--------------------------------------------------------|

--------------------------------------------------------------|
--------------------------------------------------------------|
--------------------------------------------------------------|
--x-x-7--5--x-x-7--x-x-5-x-7-x-5-x-7-x-5-x-x-x-7--x-x-5-x-7-x-|
--------------------------------------------------------------|
--------------------------------------------------------------|

----------------------------------------------------------------|
----------------------------------------------------------------|
----------------------------------------------------------------|
--5-x-7-x-5-x-x-x-7--x-x-5-x-7-x-5-x-7-x-5-x-x-x-7--x-x-5-x-7-x-|
----------------------------------------------------------------|
----------------------------------------------------------------|

---------------------------------------------------------|
---------------------------------------------------------|
---------------------------------------------------------|
--5-x-7-x-5-x-x-x-7--x-x-5-x-7-x-5-x-7-x-5-5-5-5-5----0--|
---------------------------------------------------------|
---------------------------------------------------------|

-------------------------------|----------------------------|
-------------------------------|----------------------------|
--10/9---9/7---7----7--8-7-----|--5----5----7----7----7-----|
-------0-----0----0---------0--|-----0----0----0----0----0--|
-------------------------------|----------------------------|
-------------------------------|----------------------------|

-------------------------------|---------------------------|------------------|
-------------------------------|---------------------------|------------------|
--10/9---9/7---7----7--8-7-----|--5----5----7----7----7----|------------------|
-------0-----0----0---------0--|-----0----0----0----0------|------------------|
-------------------------------|---------------------------|------------------|
-------------------------------|---------------------------|------------------|

------------------|------------------|------------------|
------------------|------------------|------------------|
------------------|------------------|------------------|
------------------|------------------|------------------|
------------------|------------------|------------------|
------------------|------------------|------------------|

-------------------------------------|
-------------------------------------|
-------------------------------------|
------2-------3-3-3-----2-------3--3-|
--0---0---3---1-0-1-0---0---3---1--1-|
--0-------3---------0-------3--------|

--------------------------------------------|
--------------------------------------------|
--------------------------------------------|
------2-------3-3-3-------2-2-2-------3-3-3-|
--0---0---3---1-0-1-0-0-0-0-0-0-3-3-3-1-0-1-|
--0-------3---------0-0-0-------3-3-3-------|

-------------------------------------|-------------------------------------|
-------------------------------------|-------------------------------------|
-------------------------------------|-------------------------------------|
------2-------3-3-3-----2-------3--3-|------2-------3-3-3-----2--------3---|
--0---0---3---1-0-1-0---0---3---1--1-|--0---0---3---1-0-1-0---0---3--3-1---|
--0-------3---------0-------3--------|--0-------3---------0-------3--3-----|

------------------------------------------------------|
------------------------------------------------------|
------------------------------------------------------|
------------------------------------------------------|
--0-1-0-1-0-0-----------------0-1-0-1-0-0-1-0-0-1-0-0-|
--0-1-0-1-0-0-0-0-0-0-0-0-0-0-0-1-0-1-0-0-1-0-0-1-0-0-|

----------------------------------------------------|
----------------------------------------------------|
----------------------------------------------------|
----------------------------------------------------|
--0-1-0-1-0-0-----------------0-1-0-1-0-0-1-0-0-1---|
--0-1-0-1-0-0-0-0-0-0-0-0-0-0-0-1-0-1-0-0-1-0-0-1---|

------------------------------------------------------|
------------------------------------------------------|
------------------------------------------------------|
------------------------------------------------------|
--0-1-0-1-0-0-----------------0-1-0-1-0-0-1-0-0-1-0-0-|
--0-1-0-1-0-0-0-0-0-0-0-0-0-0-0-1-0-1-0-0-1-0-0-1-0-0-|

----------------------------------------------------|
----------------------------------------------------|
----------------------------------------------------|
----------------------------------------------------|
--0-1-0-1-0-0-----------------0-1-0-1-0-0-1-0-0-1---|
--0-1-0-1-0-0-0-0-0-0-0-0-0-0-0-1-0-1-0-0-1-0-0-1---|

--------------------------------------------|
--------------------------------------------|
--------------------------------------------|
--------2--2-------3---------2--2-------3---|
--0-0-0-0--0-3-3-3-1---0-0-0-0--0-3-3-3-1---|
--0-0-0------3-3-3-----0-0-0------3-3-3-----|

---------------------------------------|----------------------------------|
---------------------------------------|----------------------------------|
---------------------------------------|----------------------------------|
--------2--2-------3-------2-------3---|------2-------3-------2-------3---|
--0-0-0-0--0-3-3-3-1---0---0---3---1---|--0---0---3---1---0---0---3---1---|
--0-0-0------3-3-3-----0-------3-------|--0-------3-------0-------3-------|

---------------------------------|------------------|------------------||
---------------------------------|------------------|------------------||
---------------------------------|------------------|------------------||
------2-------3-------2-------3--|------------------|------------------||
--0---0---3---1---0---0---3---1--|------------------|------------------||
--0-------3-------0-------3------|------------------|------------------||
Tap to rate this tab
# A B C D E F G H I J K L M N O P Q R S T U V W X Y Z