Song name
# A B C D E F G H I J K L M N O P Q R S T U V W X Y Z

System Of A Down - Snowblind Live tab

    Hey everybody. This is my first tab, so I thought I'd try something nobody else has.
was looking through some old soad live shows and I found Daron playing this cool little
at the end of Snowblind. If you haven't heard the solo, heres a link to a video on a 
virus free site.

http://www.youtube.com/watch?v=V5HXSlfbXsY

Tunning: Drop C

--Legend--
/= slide up
\= slide down
h= hammer on
p= pull off
~= let note ring
*= Palm mute
--Legend--

Note: The verse uses a technique called touch harmonics. To play them
You fret a string and lightly tough the same string 3 or 4 frets above it. I will
where to fret and where to get the harmonic.

Intro
D]-----------------------------------------------------------------]
A]-----------------------------------------------------------------]
F]-----------------------------------------------------------------]
C]-----------------------------------------------------------------]
G]-5-5-5-5-7-7-7-7-8-8-8-8-8-8-8-8-3-3-3-3-3-3-3-3-5-5-5-5-5-5-5-5-]
C]-----------------------------------------------------------------]
  ****************************************************************

D]-----------------------------------------------------------------]
A]-----------------------------------------------------------------]
F]-3---3---3---3---3---3---3---3---5---5---5---5---5---5---5---5---]
C]-3---3---3---3---3---3---3---3---5---5---5---5---5---5---5---5---]
G]-1---1---1---1---1---1---1---1---3---3---3---3---3---3---3---3---]
C]-----------------------------------------------------------------]

D]-----------------------------------------------------------------]
A]-----------------------------------------------------------------]
F]-----------------------------------------------------------------]
C]-----------------------------------------------------------------]
G]-5-5-5-5-7-7-7-7-8-8-8-8-8-8-8-8-3-3-3-3-3-3-3-3-5-5-5-5-5-5-5-5-]
C]-----------------------------------------------------------------]
  ****************************************************************

D]-----------------------------------------------------------------]
A]-----------------------------------------------------------------]
F]-3---3---3---3---3---3---3---3---5---5---5---5---5---5---5---5---]
C]-3---3---3---3---3---3---3---3---5---5---5---5---5---5---5---5---]
G]-1---1---1---1---1---1---1---1---3---3---3---3---3---3---3---3---]
C]-----------------------------------------------------------------]

Verse
D]-----------------------------------------------------------------------]
A]-----------------------------------------------------------------------]
F]-----------------------------------------------------------------------]
C]-----------------------------------------------------------------------]
G]-----------------------------------------------------------------------]
    12       12           10   12
C]-<17>-x-x-<16>-x-x-x-x-<13>-<16>--x-x--101010--10--1010--10--10--7---10]
                                         ********************************

The note on the top you fret. The note on the bottom you place your finger for the harmonic.

D]-----------------------------------------------------------------------]
A]-----------------------------------------------------------------------]
F]-----------------------------------------------------------------------]
C]-----------------------------------------------------------------------]
G]-----------------------------------------------------------------------]
    12       12           10   12
C]-<16>-x-x-<16>-x-x-x-x-<14>-<17>--x-x--101010--10--1010--10--10--7---10]
                                         ********************************

Play verse parts one after the other three times

Chorus
D]------------------------------------------------------------------]
A]------------------------------------------------------------------]
F]-7-----\-5--------------------------------------------------------]
C]-7-----\-5-------5-------7--------8---8---8---8---10--10--10--10--]
G]-5-----\-3-------5-------7--------8---8---8---8---10--10--10--10--]
C]-----------------5-------7--------8---8---8---8---10--10--10--10--]

D]------------------------------------------------------------------]
A]------------------------------------------------------------------]
F]-7-----\-5--------------------------------------------------------]
C]-7-----\-5-------5-------7--------8---8---8---8---10--10--10--10--]
G]-5-----\-3-------5-------7--------8---8---8---8---10--10--10--10--]
C]-----------------5-------7--------8---8---8---8---10--10--10--10--]

D]-----------------------------------------------------------------]
A]-----------------------------------------------------------------]
F]-----------------------------------------------------------------]
C]-----------------------------------------------------------------]
G]-5-5-5-5-7-7-7-7-8-8-8-8-8-8-8-8-3-3-3-3-3-3-3-3-5-5-5-5-5-5-5-5-]
C]-----------------------------------------------------------------]
  ****************************************************************

D]-----------------------------------------------------------------]
A]-----------------------------------------------------------------]
F]-3---3---3---3---3---3---3---3---5---5---5---5---5---5---5---5---]
C]-3---3---3---3---3---3---3---3---5---5---5---5---5---5---5---5---]
G]-1---1---1---1---1---1---1---1---3---3---3---3---3---3---3---3---]
C]-----------------------------------------------------------------]

D]-----------------------------------------------------------------]
A]-----------------------------------------------------------------]
F]-----------------------------------------------------------------]
C]-----------------------------------------------------------------]
G]-5-5-5-5-7-7-7-7-8-8-8-8-8-8-8-8-3-3-3-3-3-3-3-3-5-5-5-5-5-5-5-5-]
C]-----------------------------------------------------------------]
  ****************************************************************

D]-----------------------------------------------------------------]
A]-----------------------------------------------------------------]
F]-3---3---3---3---3---3---3---3---5---5---5---5---5---5---5---5---]
C]-3---3---3---3---3---3---3---3---5---5---5---5---5---5---5---5---]
G]-1---1---1---1---1---1---1---1---3---3---3---3---3---3---3---3---]
C]-----------------------------------------------------------------]

Verse
D]-----------------------------------------------------------------------]
A]-----------------------------------------------------------------------]
F]-----------------------------------------------------------------------]
C]-----------------------------------------------------------------------]
G]-----------------------------------------------------------------------]
    12       12           10   12
C]-<17>-x-x-<16>-x-x-x-x-<13>-<16>--x-x--101010--10--1010--10--10--7---10]
                                         ********************************

D]-----------------------------------------------------------------------]
A]-----------------------------------------------------------------------]
F]-----------------------------------------------------------------------]
C]-----------------------------------------------------------------------]
G]-----------------------------------------------------------------------]
    12       12           10   12
C]-<16>-x-x-<16>-x-x-x-x-<14>-<17>--x-x--101010--10--1010--10--10--7---10]
                                         ********************************

Chorus
D]------------------------------------------------------------------]
A]------------------------------------------------------------------]
F]-7-----\-5--------------------------------------------------------]
C]-7-----\-5-------5-------7--------8---8---8---8---10--10--10--10--]
G]-5-----\-3-------5-------7--------8---8---8---8---10--10--10--10--]
C]-----------------5-------7--------8---8---8---8---10--10--10--10--]

D]------------------------------------------------------------------]
A]------------------------------------------------------------------]
F]-7-----\-5--------------------------------------------------------]
C]-7-----\-5-------5-------7--------8---8---8---8---10--10--10--10--]
G]-5-----\-3-------5-------7--------8---8---8---8---10--10--10--10--]
C]-----------------5-------7--------8---8---8---8---10--10--10--10--]

D]-----------------------------------------------------------------]
A]-----------------------------------------------------------------]
F]-----------------------------------------------------------------]
C]-----------------------------------------------------------------]
G]-5-5-5-5-7-7-7-7-8-8-8-8-8-8-8-8-3-3-3-3-3-3-3-3-5-5-5-5-5-5-5-5-]
C]-----------------------------------------------------------------]
  ****************************************************************

D]-----------------------------------------------------------------]
A]-----------------------------------------------------------------]
F]-3---3---3---3---3---3---3---3---5---5---5---5---5---5---5---5---]
C]-3---3---3---3---3---3---3---3---5---5---5---5---5---5---5---5---]
G]-1---1---1---1---1---1---1---1---3---3---3---3---3---3---3---3---]
C]-----------------------------------------------------------------]

D]-----------------------------------------------------------------]
A]-----------------------------------------------------------------]
F]-----------------------------------------------------------------]
C]-----------------------------------------------------------------]
G]-5-5-5-5-7-7-7-7-8-8-8-8-8-8-8-8-3-3-3-3-3-3-3-3-5-5-5-5-5-5-5-5-]
C]-----------------------------------------------------------------]
  ****************************************************************

D]-----------------------------------------------------------------]
A]-----------------------------------------------------------------]
F]-3---3---3---3---3---3---3---3---5---5---5---5---5---5---5---5---]
C]-3---3---3---3---3---3---3---3---5---5---5---5---5---5---5---5---]
G]-1---1---1---1---1---1---1---1---3---3---3---3---3---3---3---3---]
C]-----------------------------------------------------------------]

Interlude
D]-------------------------------------------------------------]
A]-----6---8-6-----8---6-6-8-6-----5---6-5-----6---5-5-6-5-----]
F]-------------------------------------------------------------]
C]-------------------------------------------------------------]
G]-------------------------------------------------------------]
C]-------------------------------------------------------------]
  ************************************************************

D]-------------------------------------------------------------]
A]-----3---5-3-----5---3-3-5-3-----2---3-2-----3---2-2-3-2-----]
F]-------------------------------------------------------------]
C]-------------------------------------------------------------]
G]-------------------------------------------------------------]
C]-------------------------------------------------------------]
  ************************************************************

Play interlude parts one after another for six times


Here theres a cool little bass riff, so you can sit back and relax for about
7 seconds

Bridge
D]-------------------------------------------------]
A]-------------------------------------------------]
F]-------------------------------------------------]
C]-0-------0---3---0---3---0-------0---3---0---3---]
G]-0-------0---3---0---3---0-------0---3---0---3---]
C]-0-------0---3---0---3---0-------0---3---0---3---]

D]-------------------------------------------------]
A]-------------------------------------------------]
F]-------------------------------------------------]
C]-0-------0---3---0---3---0-------0---3---0---3---]
G]-0-------0---3---0---3---0-------0---3---0---3---]
C]-0-------0---3---0---3---0-------0---3---0---3---]

D]-------------------------------------------------]
A]-------------------------------------------------]
F]-------------------------------------------------]
C]-0-------0---3---0---3---0-------0---3---0---3---]
G]-0-------0---3---0---3---0-------0---3---0---3---]
C]-0-------0---3---0---3---0-------0---3---0---3---]

D]-------------------------------------------------]
A]-------------------------------------------------]
F]-----------------------------5-------5-------5---]
C]-0-------0---3---0---3---0---5-------5-------5---]
G]-0-------0---3---0---3---0---3-------3-------3---]
C]-0-------0---3---0---3---0-----------------------]

Chorus
D]------------------------------------------------------------------]
A]------------------------------------------------------------------]
F]-7-----\-5--------------------------------------------------------]
C]-7-----\-5-------5-------7--------8---8---8---8---10--10--10--10--]
G]-5-----\-3-------5-------7--------8---8---8---8---10--10--10--10--]
C]-----------------5-------7--------8---8---8---8---10--10--10--10--]

D]------------------------------------------------------------------]
A]------------------------------------------------------------------]
F]-7-----\-5--------------------------------------------------------]
C]-7-----\-5-------5-------7--------8---8---8---8---10--10--10--10--]
G]-5-----\-3-------5-------7--------8---8---8---8---10--10--10--10--]
C]-----------------5-------7--------8---8---8---8---10--10--10--10--]

D]-----------------------------------------------------------------]
A]-----------------------------------------------------------------]
F]-----------------------------------------------------------------]
C]-----------------------------------------------------------------]
G]-5-5-5-5-7-7-7-7-8-8-8-8-8-8-8-8-3-3-3-3-3-3-3-3-5-5-5-5-5-5-5-5-]
C]-----------------------------------------------------------------]
  ****************************************************************

D]-----------------------------------------------------------------]
A]-----------------------------------------------------------------]
F]-3---3---3---3---3---3---3---3---5---5---5---5---5---5---5---5---]
C]-3---3---3---3---3---3---3---3---5---5---5---5---5---5---5---5---]
G]-1---1---1---1---1---1---1---1---3---3---3---3---3---3---3---3---]
C]-----------------------------------------------------------------]

D]-----------------------------------------------------------------]
A]-----------------------------------------------------------------]
F]-----------------------------------------------------------------]
C]-----------------------------------------------------------------]
G]-5-5-5-5-7-7-7-7-8-8-8-8-8-8-8-8-3-3-3-3-3-3-3-3-5-5-5-5-5-5-5-5-]
C]-----------------------------------------------------------------]
  ****************************************************************

D]-----------------------------------------------------------------]
A]-----------------------------------------------------------------]
F]-3---3---3---3---3---3---3---3---5---5---5---5---5---5---5---5---]
C]-3---3---3---3---3---3---3---3---5---5---5---5---5---5---5---5---]
G]-1---1---1---1---1---1---1---1---3---3---3---3---3---3---3---3---]
C]-----------------------------------------------------------------]

Interlude
D]-------------------------------------------------------------]
A]-----6---8-6-----8---6-6-8-6-----5---6-5-----6---5-5-6-5-----]
F]-------------------------------------------------------------]
C]-------------------------------------------------------------]
G]-------------------------------------------------------------]
C]-------------------------------------------------------------]
  ************************************************************

D]-------------------------------------------------------------]
A]-----3---5-3-----5---3-3-5-3-----2---3-2-----3---2-2-3-2-----]
F]-------------------------------------------------------------]
C]-------------------------------------------------------------]
G]-------------------------------------------------------------]
C]-------------------------------------------------------------]
  ************************************************************

Solo
D]--------------------------------------------------------------------]
A]--------------------------------------------------------------------]
F]----10-12-14-17~-1717-171717-15-14-12-14-14h15-14-12----12----------]
C]-12--------------------------------------------------15----15-14-15-]
G]--------------------------------------------------------------------]
C]--------------------------------------------------------------------]

D]--------------------------------------------------------------------]
A]--------------------------------10-11-13-13-13----------------------]
F]------------------------9-10-12----------------15-15-14-14-14-14-14-]
C]-14-12-14-12--10--10-12---------------------------------------------]
G]--------------------------------------------------------------------]
C]--------------------------------------------------------------------]

D]---------15-15-13-12-----13-12-----13-12-----13-12-----13-12--------]
A]--------------------13--------13--------13--------13--------13------]
F]--141414--------------14--------14--------14--------14--------14----]
C]--------------------------------------------------------------------]
G]--------------------------------------------------------------------]
C]--------------------------------------------------------------------]

D]--13-12-----13-12----12-13-15--15-13-13-12-12-13-13-------------------]
A]-------13---------13--------------------------------13-13-------13-13-]
F]---------14-----------------------------------------------14-14-------]
C]----------------------------------------------------------------------]
G]----------------------------------------------------------------------]
C]----------------------------------------------------------------------]

D]----------------------------------------------------------------------]
A]----------------------------------------------------------------------]
F]-15-15-14-14-12-12-10-9-10-9-10-9-10-9-10-9-10-9h10-------------------]
C]----------------------------------------------------------------------]
G]----------------------------------------------------------------------]
C]----------------------------------------------------------------------]

   There ya go. Plz rate and tell me what you think.
Tap to rate this tab
 
# A B C D E F G H I J K L M N O P Q R S T U V W X Y Z