Song name
# A B C D E F G H I J K L M N O P Q R S T U V W X Y Z

Systematic - Jane Doe tab

Help us improve GuitareTab! Take a short survey!
verse
e(-------------------)(--------------------------------------)
b(-------------------)(--------------------------------------)
g(----2---0----------)(--------------------------------------)
d(--0---1---2/3-3-2b-)(--999-9999-777-7777-555-5555-777-7777-)
a(-------------------)(--999-9999-777-7777-555-5555-777-7777-)
D(-------------------)(--999-9999-777-7777-555-5555-777-7777-)

chorus                              lead
e(------------------------------)(--17-15--17-16--17-15--17-16--17-)
b(------------------------------)(---------------------------------)
g(------------------------------)(---------------------------------)
d(-------------------99-77-88-9-)(---------------------------------)
a(-------------------99-77-88-9-)(---------------------------------)
D(--2222777722227777-99-77-88-9-)(---------------------------------)
  pm................
breakdown
e(-------------------)(--------------------------------)
b(-------------------)(--17-15--17-16--17-15--17-16-17-)
g(-------------------)(--------------------------------)
d(--7777777766666666-)(--------------------------------)
a(--7777777766666666-)(--------------------------------)
D(--7777777766666666-)(--------------------------------)
Related for Jane Doe tab