Song name
# A B C D E F G H I J K L M N O P Q R S T U V W X Y Z

Systematic - If tab

Band- Systematic
Song- If

Tuning: Standard down half step.

Intro/Verse/Outro
E|------------------------------------------------------------------------------|
B|------------------------------------------------------------------------------|
G|-----2------------------------------------------------------------------------|
D|--------------4--------4--------2-----4---------------------------------------|
A|-2-2---2----------------------------------------------------------------------|
E|----------3-3---3--0-0---0---33--3-55--5--------------------------------------|

Pre Chorus
E|-3-0--------------------------------------------------------------------------|
B|-3-2--------------------------------------------------------------------------|
G|-0-2--------------------------------------------------------------------------|
D|-0-2--------------------------------------------------------------------------|
A|-2-0--------------------------------------------------------------------------|
E|-3----------------------------------------------------------------------------|

Chorus
E|-------------------------------------------------------------------------------|
B|-------------------------------------------------------------------------------|
G|-4-4-4--6/76--4-------4-4-4--6/76--4------4---4------------4-4-----------------|
D|-4-4-4--x-x-x--x-------4-4-4--x-x-x--x------4-5-x------------4-4---------------|
A|-2-2-2--4/54--2-------2-2-2--4/54--2------2-5-2----2-3-2-3-2-2-----------------|
E|---------------0---------------------0--------3-0----2-3-2-3-2-2---------------|
    pm                    pm                                    fade out

Bridge solo and riffs
E|-------------------------------------------2-2-2-2-2-2-2----------------------|
B|-----------------------------5-5-5-5-5-5-5------------------------------------|
G|---------4-4------------------------------------------------------------------|
D|---------4-4---4b4b4b4b4b4b------------------------------------4--------5-----|
A|-2-3-2-3-2-2------------------------------------------------------------------|
E|-2-3-2-3-2-2-----------------------------------------------2-2---2--3-3---3---|
Tap to rate this tab
# A B C D E F G H I J K L M N O P Q R S T U V W X Y Z