Song name
# A B C D E F G H I J K L M N O P Q R S T U V W X Y Z

Systematic - Slowburn tab

Band- Systematic
Song- Slowburn

Main Riff

D-------------------------|
A-------------------------|
F-------------------------|
C-------------------------|
G---6---8---6---5---------|
C-0---0---0---0-----------|

Pre-chorus

D---------------------------------|
A---------------------------------|
F---------------------------------|
C---5-------5-------5-------5-----|
G-3---3-6-3---3-6-------6-------6-|
C-----------------6---6---6---6---|

D---------------------------------|
A---------------------------------|
F---------------------------------|
C---5-------5-------5-------5-----|
G-------6-------6-------6-------6-|
C-3---3---3---3---5---5---5---5---|

Chorus

D------------|
A------------|
F------------|
C-0----3--6--|
G-0----3--6--|
C-0----3--6--|
Tap to rate this tab
# A B C D E F G H I J K L M N O P Q R S T U V W X Y Z