Guitaretab - guitar tabs
Song name
# A B C D E F G H I J K L M N O P Q R S T U V W X Y Z

Systematic - Shine tab

------------------------------------------------------------------------
	      	         Shine - Systematic
------------------------------------------------------------------------
Tabbed by: Edd
Email: ed_sk8_87@hotmail.com

Its not as hard as it seems, just take it easy, and youll get it.
Intro  Play this three times 
Guitar 1
(Its fret 1, not 11, but you have to do it fast)
e|---------------------------------------------------------------------|
B|---------------------------------------------------------------------|
G|---------------------------------------------------------------------|
D|---------------------------------------------------------------------|
A|---------------------------------------------------------------------|
E|-xxxx11xxxxx44xx44xxxx11xxxxx44xx44xxxx11xxxxx44xx44xxxx11xx00000000-|
Guitar 2 (starts at the second time). 
e|----------------------------------------|
B|----------------------------------------|
G|----------------------------------------|
D|----------------------------------------|
A|-2-2-2---2-2-2---2-2-2---2-2-x-2--2-2---|
E|-0-0-0---0-0-0---0-0-0---0-0-x-0--0-0---|
       *       *       *         *  * *

1st Verse 
Guitar 1
Fret 1
(same as intro, but play it twice)
e|---------------------------------------------------------------------|
B|---------------------------------------------------------------------|
G|---------------------------------------------------------------------|
D|---------------------------------------------------------------------|
A|---------------------------------------------------------------------|
E|-xxxx11xxxxx44xx44xxxx11xxxxx44xx44xxxx11xxxxx44xx44xxxx11xx00000000-|
Guitar 2
Play it twice too.
e|----------------------------------------|
B|----------------------------------------|
G|----------------------------------------|
D|----------------------------------------|
A|-2-2-2---2-2-2---2-2-2---2-2-x-2--2-2---|
E|-0-0-0---0-0-0---0-0-0---0-0-x-0--0-0---|
       *       *       *         *  * *
Pre-chorus
Guitar 1 and 2 (guitar 2 with a light distortion)
e|-------------------------------------------------|
B|-------------------------------------------------|
G|-------------------------------------------------|
D|-------------------------------------------------|
A|-33-44-55-44-33-44-33-44-33-44-55-44-33-44-33-44-|   Play
E|-------------------------------------------------|   both
                                                       parts
e|-------------------------------------------------|   twice
B|-------------------------------------------------|
G|-------------------------------------------------|
D|-------------------------------------------------|Fret 1 and 2
A|-00-11-22-11-00-11-00-11-00-11-22-11-00-11-00-11-|
E|-------------------------------------------------|

Chorus 
Guitar 1
e|------------------------------|
B|------------------------------|
G|-10~~~---6~~~---8~~~---3~~~---|
D|-10~~~---6~~~---8~~~---3~~~---|
A|--8~~~---4~~~---6~~~---1~~~---|
E|--8~~~---4~~~---6~~~---1~~~---|
Guitar 2 Uses a wahh effect, so Im not sure about this part
e|-------------------------|
B|-------------------------|
G|-------------------------|
D|-10~~--10~~--10~~--10~~--|
A|--8~~---8~~---8~~---8~~--|
E|-------------------------|
[ Tab from: http://www.guitaretab.com/s/systematic/152078.html ]
Pre-verse
Guitar 1
Fret 1
e|---------------------------------------------------------------------|
B|---------------------------------------------------------------------|
G|---------------------------------------------------------------------|
D|---------------------------------------------------------------------|
A|---------------------------------------------------------------------|
E|-xxxx11xxxxx44xx44xxxx11xxxxx44xx44xxxx11xxxxx44xx44xxxx11xx00000000-|
Guitar 2
e|---------------------------------|
B|---------------------------------|
G|---------------------------------|
D|---------------------------------|
A|--5\6/5---5\6/5---5\6/5---5\6/5--|
E|--5\6/5---5\6/5---5\6/5---5\6/5--|
        *       *       *       *
2nd Verse
Guitar 1
Fret 1
(same as intro, but play it twice)
e|---------------------------------------------------------------------|
B|---------------------------------------------------------------------|
G|---------------------------------------------------------------------|
D|---------------------------------------------------------------------|
A|---------------------------------------------------------------------|
E|-xxxx11xxxxx44xx44xxxx11xxxxx44xx44xxxx11xxxxx44xx44xxxx11xx00000000-|
Guitar 2
Play it twice too.
e|----------------------------------------|
B|----------------------------------------|
G|----------------------------------------|
D|----------------------------------------|
A|-2-2-2---2-2-2---2-2-2---2-2-x-2--2-2---|
E|-0-0-0---0-0-0---0-0-0---0-0-x-0--0-0---|
       *       *       *         *  * *
Pre-chorus
Guitar 1 and 2 (guitar 2 with a light distortion)
e|-------------------------------------------------|
B|-------------------------------------------------|
G|-------------------------------------------------|
D|-------------------------------------------------|
A|-33-44-55-44-33-44-33-44-33-44-55-44-33-44-33-44-|   Play
E|-------------------------------------------------|   both
                                                       parts
e|-------------------------------------------------|   twice
B|-------------------------------------------------|
G|-------------------------------------------------| Fret 1 and 2
D|-------------------------------------------------|
A|-00-11-22-11-00-11-00-11-00-11-22-11-00-11-00-11-|
E|-------------------------------------------------|

Chorus 
Play both parts four times
Guitar 1              
e|------------------------------|
B|------------------------------|
G|-10~~~---6~~~---8~~~---3~~~---|
D|-10~~~---6~~~---8~~~---3~~~---|
A|--8~~~---4~~~---6~~~---1~~~---|
E|--8~~~---4~~~---6~~~---1~~~---|
Guitar 2 Uses a wahh effect, so Im not sure about this part
e|-------------------------|
B|-------------------------|
G|-------------------------|
D|-10~~--10~~--10~~--10~~--|
A|--8~~---8~~---8~~---8~~--|
E|-------------------------|
Both guitars (at the end) Let it ring!!
e|-------------|
B|-------------|
G|-------------|
D|--0~~~~~~----|
A|--0~~~~~~----|
E|-------------|

Interlude
Both guitars
Play this twice
e|--------------------------|
B|--------------------------|
G|--------------------------|
D|--------------------------|
A|--5~~---3~~---4~~---1~~---|
E|--3~~---1~~---4~~---1~~---|
Both guitars
Play this twice too.
e|----------------------------------------------------------|
B|----------------------------------------------------------|
G|----------------------------------------------------------|
D|--5-----------3---------------4-----------1---------------|
A|--5-x-x-x-x-x-3-x-x-x-x-x-x-x-4-x-x-x-x-x-1-x-x-x-x-x-x-x-|
E|--3-x-x-x-x-x-1-x-x-x-x-x-x-x-4-x-x-x-x-x-1-x-x-x-x-x-x-x-|
Guitar 1
Play this twice
e|--------------------------|
B|--------------------------|
G|--------------------------|
D|--------------------------|
A|--5~~---3~~---4~~---1~~---|
E|--3~~---1~~---4~~---1~~---|
Guitar 2
Plays this twice.
Im not sure about this because he uses a Wahh effect again.
e|------------------|
B|------------------|
G|------------------|
D|-7~~~~-----5~~~~--|
A|-5~~~~-----3~~~~--|
E|------------------|

Pre-chorus
Both guitars (Guitar 2 with light wahh effect)
e|------------------------|
B|------------------------|Fret 10
G|------------------------| play this
D|-----------1010--1010---| part twice
A|-8888998888----88-------|
E|------------------------|
                        
e|---------------------|
B|---------------------|
G|---------------------|  
D|-----------88--8////-|
A|-6666776666--66------|
E|---------------------|

Last Chorus
Play both parts four times
Guitar 1              
e|------------------------------|
B|------------------------------|
G|-10~~~---6~~~---8~~~---3~~~---|
D|-10~~~---6~~~---8~~~---3~~~---|
A|--8~~~---4~~~---6~~~---1~~~---|
E|--8~~~---4~~~---6~~~---1~~~---|
Guitar 2 Uses a wahh effect, so Im not sure about this part
e|-------------------------|
B|-------------------------|
G|-------------------------|
D|-10~~--10~~--10~~--10~~--|
A|--8~~---8~~---8~~---8~~--|
E|-------------------------|

Outro
Guitar 1
Fret 1
e|---------------------------------------------------------------------|
B|---------------------------------------------------------------------|
G|---------------------------------------------------------------------|
D|---------------------------------------------------------------------|
A|---------------------------------------------------------------------|
E|-xxxx11xxxxx44xx44xxxx11xxxxx44xx44xxxx11xxxxx44xx44xxxx11xx00000000-|
Guitar 2
e|--------------------------------------|
B|--------------------------------------|
G|--------------------------------------|
D|--------------------------------------|
A|--5\6/5---5\6/5---5\6/5--2-2-x-2--2-2-|
E|--5\6/5---5\6/5---5\6/5--0-0-x-0--0-0-|
        *       *       *        *  * *

| /  slide up
| \  slide down
| h  hammer-on
| p  pull-off
| ~  vibrato
| +  harmonic
| x  Mute note
| *  Palm Mute

What do you think?? Any comment, please e-mail me, and dont forget to rate it, ok?
Be Cool!!!

========================================================================

Related for Shine tab