Song name
# A B C D E F G H I J K L M N O P Q R S T U V W X Y Z

Systematic - Bedsores tab

Bedsores
Systematic
Somewhere in Between

tuning (low to high)   cgcfad

Im gonna try and put all the riff stuff that i know, however,
alot of it is just gonna be chords

intro/verse

--------------------------------------------------------------------------------
--------------------------------------------------------------------------------
--------------------------------------------------------------------------------
--2----4--4----x----4------2---4---4---x---4------------2--h4--p2-------------2-
--2----4--4----x----0------2---4---4---x---0---------------------------2--h4----
--2----4--4----x----0------2---4---4---x---0------------------------------------


chorus
                                                                             (returning fill)
----------------------------------------------------------------------------------------
----------------------------------------------------------------------------------------
--2----2--2------4-----4---4--------4----4---4-----6------6-----------------------------
--2----2--2------2-----2---2--------4----4---4-----4------4-----------------------------
--0----0--0------2-----2---2--------2----2---2-----4------4--------------------4-6------
-------------------2-----2---2--------------------------4------4--------------------4-6-

bridge/outro

--------------------------------------------------------------------------------
--------------------------------------------------------------------------------
----------------------------------------2---------------------------------------
---2-------4-----4-----2------6-----2-------------------------------------------
---2-------4-----4-----2------6-----0-------------------------------------------
---2-------4-----4-----2------6-----0-------------------------------------------

i apologize for not tabbing the solo....  when it comes down to it...
just play the song acoustcially, i think it sounds better that way anyway
Tap to rate this tab
# A B C D E F G H I J K L M N O P Q R S T U V W X Y Z