Song name
# A B C D E F G H I J K L M N O P Q R S T U V W X Y Z

Systematic - Glass Jaw tab

Band- Systematic
Song- Glass Jaw

Intro
-|----------------------------------------------------------------|
-|----------------------------------------------------------------|
-|-0-0-0-0-0-0-0-0-0-0-0-0-0-0---0-0-0-9-0-0-0-0-0-0-0-0-0-0-0----|
-|-5-5-5-5-5-5-5 5-5-5-5-5-5-5-0-7-7-7-7-7-7-7-7-7-7-7-7-7-7-7--0-|
-|-7-7-7-7-7-7-7-7-7-7-7-7-7-7-0-5-5-5-5-5-5-5-5-5-5-5-5-5-5-5--5-|
-|----------------------------------------------------------------|
  Gtr1 Gtr 2-not sure , something like what gtr plays in chorus

Chorus
-|--------------------------------------------------------------------|
-|--------------------------------------------------------------------|
-|--------------------------------------------------------------------|
-|--9-9-9-9-9-9--9/7--7-7-7-7-7-7--7/5--5-5-5-5-5-5--5/2--2-2-2-2-2-2-|
-|--7-7-7-7-7-7--7/5--5-5-5-5-5-5--5/3--3-3-3-3-3-3--3/0--0-0-0-0-0-0-|
-|--------------------------------------------------------------------|
Gtr1...........       ...........       ...........       ........... |
|                                                                    |
-|--------------------------------------------------------------------|
-|--------------------------------------------------------------------|
-|--------------------------------------7--------------9--------------|
-|--5-----------------4-----------------------------------------------|
-|--------------------------------------------------------------------|
-|--------------------------------------------------------------------|
Gtr 2  - not sure , played with some effect              

-|-3--|
-|---3|
-|----|
-|----|
-|----|
-|----|
Fill  

Solo @ 3:10                                              play...            
-|---------------------------------------------------------for--------12b-|
-|------------------------------------------------------8--abit-then------|
-|-9b-7-9---9b-7-9---9b-7-9---------------7-9-----------7-----------------|
-|--------9--------7------------------7-9-----------7-9-------------------|
-|--------------------------10--7--10---------7--10-----------------------|
-|------------------------------------------------------------------------|
Tap to rate this tab
# A B C D E F G H I J K L M N O P Q R S T U V W X Y Z