Song name
# A B C D E F G H I J K L M N O P Q R S T U V W X Y Z

Systematic - Right Before You tab

-------------------------------------------------------------------------
		     Right Before You – Systematic
-------------------------------------------------------------------------
Tabbed by: Edd
Email:ed_sk8_87@hotmail.com

Itīs not as hard as it seems to be, but take it easy, and youīll make it sound great.

Intro (clean guitar)
e|-------------------------------------------|
B|-------------------------------------------|
G|-------------------------------------------| Play
D|---12-13-12---12---12---12-16-12---12---12-| Twice
A|-0----------0----0----0----------0----0----|
E|-------------------------------------------|

Verse (clean guitar)
e|-------------------------------------------|
B|-------------------------------------------|
G|-------------------------------------------| Play
D|---12-13-12---12---12---12-16-12---12---12-| Twice
A|-0----------0----0----0----------0----0----|
E|-------------------------------------------|

e|-------------------------------|
B|-------------------------------|
G|-----------------11-11p12p11---|
D|-------------------------------|
A|--8-8-8-8-10-10----------------|
E|-8-8-8-8-8--8--10-----------10-|

e|-------------------------------------------|
B|-------------------------------------------|
G|-------------------------------------------| Play
D|---12-13-12---12---12---12-16-12---12---12-| Twice
A|-0----------0----0----0----------0----0----|
E|-------------------------------------------|

e|-------------------------------|
B|-------------------------------|
G|-----------------11-11p12p11---|
D|-------------------------------|
A|--8-8-8-8-10-10----------------|
E|-8-8-8-8-8--8--10-----------10-|

e|-------------------------------------------|
B|-------------------------------------------|
G|-------------------------------------------|
D|---12-13-12---12---12---12-16-12---12---12-|
A|-0----------0----0----0----------0----0----|
E|-------------------------------------------|

e|-------------------------------|
B|-------------------------------|
G|-----------------11-11p12p11---|
D|-------------------------------|
A|--8-8-8-8-10-10----------------|
E|-8-8-8-8-8--8--10-----------10-|

e|-------------------------------------------|
B|-------------------------------------------|
G|-------------------------------------------|
D|---12-13-12---12---12---12-/-16-/-17-/-19--|
A|-0----------0----0----0--------------------|
E|-------------------------------------------|

e|-------------------------------------------|
B|-------------------------------------------|
G|-------------------------------------------| Play
D|---12-13-12---12---12---12-16-12---12---12-| Twice
A|-0----------0----0----0----------0----0----|
E|-------------------------------------------|

e|-------------------------------|
B|-------------------------------|
G|-----------------11-11p12p11---|
D|-------------------------------|
A|--8-8-8-8-10-10----------------|
E|-8-8-8-8-8--8--10-----------10-|

e|-------------------------------------------|
B|-------------------------------------------|
G|-------------------------------------------|
D|---12-13-12---12---12---12-16-12---12---12-|
A|-0----------0----0----0----------0----0----|
E|-------------------------------------------|

e|-------------------------------|
B|-------------------------------|
G|-----------------11-11p12p11---|
D|-------------------------------|
A|--8-8-8-8-10-10----------------|
E|-8-8-8-8-8--8--10-----------10-|

e|------------------------------------|
B|------------------------------------|
G|------------------------------------|
D|---12-13-12---12---12---12-16-12----|
A|-0----------0----0----0-------------|
E|------------------------------------|

Chorus (distortion)
e|-----------------------------------------------|
B|-----------------------------------------------|
G|-10~~~-------7~~~------------------------------| Play 3
D|-10~~~-10~~~-7~~~--4-\-6-\-7-\-6-\-4---6-4-----| Times
A|--8~~~-10~~~-5~~~--------------------5-----5---|
E|--8~~~--8~~~-5~~~------------------------------|

e|-------------------|
B|-------------------|
G|-10~~~-------7~~~--|
D|-10~~~-10~~~-7~~~--|
A|--8~~~-10~~~-5~~~--|
E|--8~~~--8~~~-5~~~--|

Pre-verse (clean guitar)
e|-------------------------------------------|
B|-------------------------------------------|
G|-------------------------------------------| Play
D|---12-13-12---12---12---12-16-12---12---12-| Twice
A|-0----------0----0----0----------0----0----|
E|-------------------------------------------|

Verse (clean guitar)
e|-------------------------------------------|
B|-------------------------------------------|
G|-------------------------------------------| Play
D|---12-13-12---12---12---12-16-12---12---12-| Twice
A|-0----------0----0----0----------0----0----|
E|-------------------------------------------|

e|-------------------------------|
B|-------------------------------|
G|-----------------11-11p12p11---|
D|-------------------------------|
A|--8-8-8-8-10-10----------------|
E|-8-8-8-8-8--8--10-----------10-|

e|----------------------------------|
B|----------------------------------|
G|----------------------------------|
D|---12-13-12---12---12---12-16-12--|
A|-0----------0----0----0-----------|
E|----------------------------------|

Chorus (distortion)
e|-----------------------------------------------|
B|-----------------------------------------------|
G|-10~~~-------7~~~------------------------------| Play 2
D|-10~~~-10~~~-7~~~--4-\-6-\-7-\-6-\-4---6-4-----| Times
A|--8~~~-10~~~-5~~~--------------------5-----5---|
E|--8~~~--8~~~-5~~~------------------------------|

e|------------------|
B|------------------|
G|-------7~~~-------|
D|-10~~~-7~~~-5~~~--|
A|-10~~~-5~~~-5~~~--|
E|--8~~~-5~~~-3~~~--|

e|-------------------|
B|-------------------|
G|-10~~~-------7~~~--|
D|-10~~~-10~~~-7~~~--|
A|--8~~~-10~~~-5~~~--|
E|--8~~~--8~~~-5~~~--|

Bridge (distortion)
e|-----------------------------|
B|-----------------------------|
G|-----------------------------|
D|--7---5----------------------|
A|--5---3---7---5---7---5---3--|
E|----------5---3---5---3---1--|

Play this 4 times
e|--------------------------------------------------------------|
B|--------------------------------------------------------------|
G|--------------------------------------------------------------|
D|-3-3--5-5--8-8--5-5--xx-3-xx-5-----3------5------8------5-----|
A|-3-3--5-5--8-8--5-5--xx-3-xx-5-------3------5------8------5~~-|
E|-1-1--3-3--6-6--3-3--xx-1-xx-3---0------0------0------0-------|
     *    *    *    *
Outro (the entire outro goes with clean guitar)
e|-------------------------------------------|
B|-------------------------------------------|
G|-------------------------------------------|
D|---12-13-12---12---12---12-16-12---12---12-|
A|-0----------0----0----0----------0----0----|
E|-------------------------------------------|

e|------------------------------------|
B|------------------------------------|
G|------------------------------------|
D|---12-13-12---12---12---12-16-12----|
A|-0----------0----0----0-------------|
E|------------------------------------|

e|-----------------------------------------------|
B|-----------------------------------------------|
G|-10~~--------7~~-------------------------------|
D|-10~~--10~~--7~~---4-\-6-\-7-\-6-\-4---6-4-----|
A|--8~~--10~~--5~~---------------------5-----5---|
E|--8~~---8~~--5~~-------------------------------|

e|--------------|
B|--------------|
G|-10~~---------|
D|-10~~--10~~---|
A|--8~~--10~~---|
E|--8~~---8~~---|

Play this until the end
e|-------------------------------------------|
B|-------------------------------------------|
G|-------------------------------------------|
D|---12-13-12---12---12---12-16-12---12---12-|
A|-0----------0----0----0----------0----0----|
E|-------------------------------------------|

Thatīs all! Itīs easy, just listen to the song for the rythm and timming, itīs a really 
song. Enjoy it!! Any comment please e-mail me!! Be CoOl!!! HeAd RuLeS!!!

| /  slide up
| \  slide down
| p  pull-off
| ~  vibrato
| x  Mute note
| *  Palm Mute
==========================================================================
Tap to rate this tab
 
# A B C D E F G H I J K L M N O P Q R S T U V W X Y Z