Song name
# A B C D E F G H I J K L M N O P Q R S T U V W X Y Z

Systematic - Goner tab

Artist: Systematic
Album : Demo v1
Song  : Goner
Tab by: Mike G.
        (Hey_Mike_Nice_Shot@yahoo.com)
        Will O.
        (fadedhorizons@yahoo.com)
====================================================================================
Tuning: Dropped-D 1/2 Step down.. (Low to High: Db Eb Ab Gb Bb eb)

Intro/Verse: (Is this the end, failing in life...)
Eb---------------------------------------------------------|
Bb---------------------------------------------------------|
Gb-------5------------5--------------5--------------5------|
Db-----5---5--------5---5----------5---5----------5---5----|
Ab------------------------------3--------------------------|
Db---2-----------0-----------------------------5-----------|


(Can't kill a day, Think I like it...)
Eb------------------------------------|
Bb------------------------------------|
Gb------------------------------------|
Db-----5----------------------4-------|
Ab---3---3------------------2---2-----|
Db-2----------------------1-----------|


(Fading away, it's too real to fight it...)
Eb-----------------------------------------|
Bb-----------------------------------------|
Gb-----------------------------------------|
Db-----5--------------------------4--------|
Ab---3---3----------------------2---2------|
Db-2--------------------------0------------|


Chorus: (I can't control.....)
Eb-----------------------------------------|
Bb-----------------------------------------|
Gb-----------------------------------------|
Db-----------------------------------------|
Ab---8-8-8-8-8-8-8-8----8-8-8-8-8-8-0-0----|
Db---8-8-8-8-8-8-8-8----8-8-8-8-8-8-0-0----|
     1 & 2 & 3 & 4 &    1 & 2 & 3 & 4 &


(Distaste, recourse...)
Eb-----------------------------------------|
Bb-----------------------------------------|
Gb-----------------------------------------|
Db-----------------------------------------|
Ab---6-6-6-6-6-6-6-6----6-6-6-6-6-6-0-0----|
Db---6-6-6-6-6-6-6-6----6-6-6-6-6-6-0-0----|
     1 & 2 & 3 & 4 &    1 & 2 & 3 & 4 &

(Indefinately...)
Eb---------------------|
Bb---------------------|
Gb---------------------|
Db---------------------|
Ab---8-8-8-8-8-8-8-8---|
Db---8-8-8-8-8-8-8-8---|
     1 & 2 & 3 & 4 &

After chorus, let notes ring...
Eb-----------------------------------------|
Bb-----------------------------------------|
Gb--5--------------------------------------|
Db--5--6---2---0---------------------------|
Ab--3--6---2---0---------------------------|
Db-----6---2---0---------------------------|

Bridge: (Wraps me in stones, we play the darkest...)
Eb-----------------------------------------------------------------|
Bb-----------------------------------------------------------------|
Gb--5555555555555555-----------------------------------------------|
Db--5555555555555555--6666---2222---0000---------------------------|
Ab--3333333333333333--6666---2222---0000---------------------------|
Db--------------------6666---2222---0000---------------------------|
P.M.....................................

Outro: [Played over the same chords
you let ring after verse]
Eb-------------------|------------------------------|--------------------------------|
Bb-------------------|------------------------------|--------------------------------|
Gb-------------------|------------------------------|--------------------------------|
Db-------------------|------------------------------|-4----------------------------6-|
Ab---3~~~~~~~~~~~~~~~|~~~~~~~3~~---5/6~--\5-3---1---|-4----------------------------6-|
Db-------------------|------------------------------|-4----------------------------6-|
     1 & 2 & 3 & 4 &   1 & 2 &     3    &    4   &      let ring and slide to
Tap to rate this tab
# A B C D E F G H I J K L M N O P Q R S T U V W X Y Z