Guitaretab - guitar tabs
Song name
# A B C D E F G H I J K L M N O P Q R S T U V W X Y Z

Systematic - Thick Skin tab

---------------------------------------------------------------------------
			  Thick Skin - Systematic
---------------------------------------------------------------------------
Tabbed by: Edd
Email: ed_sk8_87@hotmail.com

Itīs not to difficult, just listen to the song to get the correct timing. Have Fun!!
Intro
e|------------------------------------------------------------|
B|------------------------------------------------------------|
G|------------------------------------------------------------| 
D|-0-0-6-0--0-6-0--0-6-0--0-6-0-0-0-6-0--0-6-0--0-6-0--0-6-0--| 
A|-0-0-6-0--0-6-0--0-6-0--0-6-0-0-0-6-0--0-6-0--0-6-0--0-6-0--| 
E|------------------------------------------------------------|
         *      *      *              *      *      *      *

e|------------------------------------------------------------|
B|------------------------------------------------------------|
G|------------------------------------------------------------| 
D|-0-0-6-0--0-6-0--0-6-0--0-6-0-0-0-6-0--0-6-0--0-6-0--0-6-0--| 
A|-0-0-6-0--0-6-0--0-6-0--0-6-0-0-0-6-0--0-6-0--0-6-0--0-6-0--| 
E|------------------------------------------------------------|
         *      *      *              *      *      *      *

e|------------------------------------------------------------| 
B|------------------------------------------------------------| 
G|------------------------------------------------------------| 
D|-0-0-6-0--0-6-0--0-6-0--0-6-0-0-0-6-0--0-6-0--0-6-0--0-6----| 
A|-0-0-6-0--0-6-0--0-6-0--0-6-0-0-0-6-0--0-6-0--0-6-0--0-6----| 
E|-0-0-6-0--0-6-0--0-6-0--0-6-0-0-0-6-0--0-6-0--0-6-0--0-6----| 
         *      *      *              *      *      *    * 

e|------------------------------------------------------------| 
B|------------------------------------------------------------| 
G|------------------------------------------------------------| 
D|-0-0-6-0--0-6-0--0-6-0--0-6-0-0-0-6-0--0-6-0--0-6-0--0-6-0--| 
A|-0-0-6-0--0-6-0--0-6-0--0-6-0-0-0-6-0--0-6-0--0-6-0--0-6-0--| 
E|-0-0-6-0--0-6-0--0-6-0--0-6-0-0-0-6-0--0-6-0--0-6-0--0-6-0--| 
         *      *      *              *      *      *      *
 
1st Verse
e|------------------------------------------------------------|
B|------------------------------------------------------------|
G|------------------------------------------------------------|
D|-0-0-6-0--0-6-0--0-6-0--0-6-0-0-0-6-0--0-6-0--0-6-0--0-6-0--|
A|-0-0-6-0--0-6-0--0-6-0--0-6-0-0-0-6-0--0-6-0--0-6-0--0-6-0--|
E|------------------------------------------------------------|
         *      *      *              *      *      *      *

e|------------------------------------------------------------| 
B|------------------------------------------------------------| 
G|------------------------------------------------------------| 
D|-0-0-6-0--0-6-0--0-6-0--0-6-0-0-0-6-0--0-6-0--0-6-0--0-6----| 
A|-0-0-6-0--0-6-0--0-6-0--0-6-0-0-0-6-0--0-6-0--0-6-0--0-6----| 
E|------------------------------------------------------------| 
         *      *      *              *      *      *    *

e|-----------------------------------------------------------| 
B|-----------------------------------------------------------| 
G|-----------------------------------------------------------| 
D|-0-0-6-0--0-6-0--0-6-0--0-6-0-0-0-6-0--0-6-0--10---10/////-| 
A|-0-0-6-0--0-6-0--0-6-0--0-6-0-0-0-6-0--0-6-0--10---10/////-| 
E|-----------------------------------------------------------| 
         *      *      *              *      * 

Chorus
e|----------------------------------------------------|
B|----------------------------------------------------|
G|-7--5---------8~--10~~-----7--5---------8~--10~~----|
D|-7--5--2-2-2--8~--10~~-----7--5--2-2-2--8~--10~~----|
A|-5--3--2-2-2--6~---8~~-----5--3--2-2-2--6~---8~~----|
E|-5--3--0-0-0--6~---8~~-----5--3--0-0-0--6~---8~~----|

e|----------------------------------------------------|
B|----------------------------------------------------|
G|-7--5---------8~--10~~-----7--5---------8~--10~~----|
D|-7--5--2-2-2--8~--10~~-----7--5--2-2-2--8~--10~~----|
A|-5--3--2-2-2--6~---8~~-----5--3--2-2-2--6~---8~~----|
E|-5--3--0-0-0--6~---8~~-----5--3--0-0-0--6~---8~~----|

e|------------------------------------------------------------| 
B|------------------------------------------------------------| 
G|------------------------------------------------------------| 
D|-0-0-6-0--0-6-0--0-6-0--0-6-0-0-0-6-0--0-6-0--0-6-0--0-6----| 
A|-0-0-6-0--0-6-0--0-6-0--0-6-0-0-0-6-0--0-6-0--0-6-0--0-6----| 
E|-0-0-6-0--0-6-0--0-6-0--0-6-0-0-0-6-0--0-6-0--0-6-0--0-6----| 
         *      *      *              *      *      *    *

e|------------------------------------------------------------| 
B|------------------------------------------------------------| 
G|------------------------------------------------------------| 
D|-0-0-6-0--0-6-0--0-6-0--0-6-0-0-0-6-0--0-6-0--0-6-0--0-6-0--| 
A|-0-0-6-0--0-6-0--0-6-0--0-6-0-0-0-6-0--0-6-0--0-6-0--0-6-0--| 
E|-0-0-6-0--0-6-0--0-6-0--0-6-0-0-0-6-0--0-6-0--0-6-0--0-6-0--| 
         *      *      *              *      *      *      * 

2nd Verse
e|------------------------------------------------------------|
B|------------------------------------------------------------|
G|------------------------------------------------------------|
D|-0-0-6-0--0-6-0--0-6-0--0-6-0-0-0-6-0--0-6-0--0-6-0--0-6-0--|
A|-0-0-6-0--0-6-0--0-6-0--0-6-0-0-0-6-0--0-6-0--0-6-0--0-6-0--|
E|------------------------------------------------------------|
         *      *      *              *      *      *      *
 
e|------------------------------------------------------------| 
B|------------------------------------------------------------| 
G|------------------------------------------------------------| 
D|-0-0-6-0--0-6-0--0-6-0--0-6-0-0-0-6-0--0-6-0--0-6-0--0-6----| 
A|-0-0-6-0--0-6-0--0-6-0--0-6-0-0-0-6-0--0-6-0--0-6-0--0-6----| 
E|------------------------------------------------------------| 
         *      *      *              *      *      *    * 
[ Tab from: http://www.guitaretab.com/s/systematic/85175.html ]
e|-----------------------------------------------------------| 
B|-----------------------------------------------------------| 
G|-----------------------------------------------------------| 
D|-0-0-6-0--0-6-0--0-6-0--0-6-0-0-0-6-0--0-6-0--10---10/////-| 
A|-0-0-6-0--0-6-0--0-6-0--0-6-0-0-0-6-0--0-6-0--10---10/////-| 
E|-----------------------------------------------------------| 
         *      *      *              *      *         

2nd Chorus
e|----------------------------------------------------|
B|----------------------------------------------------|
G|-7--5---------8~--10~~-----7--5---------8~--10~~----|
D|-7--5--2-2-2--8~--10~~-----7--5--2-2-2--8~--10~~----|
A|-5--3--2-2-2--6~---8~~-----5--3--2-2-2--6~---8~~----|
E|-5--3--0-0-0--6~---8~~-----5--3--0-0-0--6~---8~~----|

e|----------------------------------------------------|
B|----------------------------------------------------|
G|-7--5---------8~--10~~-----7--5---------8~--10~~----|
D|-7--5--2-2-2--8~--10~~-----7--5--2-2-2--8~--10~~----|
A|-5--3--2-2-2--6~---8~~-----5--3--2-2-2--6~---8~~----|
E|-5--3--0-0-0--6~---8~~-----5--3--0-0-0--6~---8~~----|

e|----------------------------------------------------|
B|----------------------------------------------------|
G|-7--5---------8~--10~~-----7--5---------8~--10~~----|
D|-7--5--2-2-2--8~--10~~-----7--5--2-2-2--8~--10~~----|
A|-5--3--2-2-2--6~---8~~-----5--3--2-2-2--6~---8~~----|
E|-5--3--0-0-0--6~---8~~-----5--3--0-0-0--6~---8~~----|

e|----------------------------------------------------------|
B|----------------------------------------------------------|
G|-7--5---------8~--10~~-----7--5---------8~--10~~---5~~~~~-|
D|-7--5--2-2-2--8~--10~~-----7--5--2-2-2--8~--10~~---5~~~~~-|
A|-5--3--2-2-2--6~---8~~-----5--3--2-2-2--6~---8~~---3~~~~~-|
E|-5--3--0-0-0--6~---8~~-----5--3--0-0-0--6~---8~~---3~~~~~-|

Interlude (THIS IS THE PART WHERE YOU LOOSE YOUR MIND!!!!! YEAH!!!)
e|-------------------------------------------|
B|-------------------------------------------|
G|-------------------------------------------|
D|-760-760-760-760-7676-640-640-540-540-5454-|
A|-760-760-760-760-7676-640-640-540-540-5454-|
E|-------------------------------------------|

e|-------------------------------------------|
B|-------------------------------------------|
G|-------------------------------------------|
D|-760-760-760-760-7676-640-640-540-540-5454-|
A|-760-760-760-760-7676-640-640-540-540-5454-|
E|-------------------------------------------|

e|-------------------------------------------|
B|-------------------------------------------|
G|-------------------------------------------|
D|-------------------------------------------|
A|-760-760-760-760-7676-640-640-540-540-5454-|
E|-760-760-760-760-7676-640-640-540-540-5454-|

e|-------------------------------------------|
B|-------------------------------------------|
G|-------------------------------------------|
D|-------------------------------------------|
A|-760-760-760-760-7676-640-640-540-540-5454-|
E|-760-760-760-760-7676-640-640-540-540-5454-|

e|-------------------------------------------|
B|-------------------------------------------|
G|-------------------------------------------|
D|-760-760-760-760-7676-640-640-540-540-5454-|
A|-760-760-760-760-7676-640-640-540-540-5454-|
E|-760-760-760-760-7676-640-640-540-540-5454-|

e|-------------------------------------------|
B|-------------------------------------------|
G|-------------------------------------------|
D|-760-760-760-760-7676-640-640-540-540-5454-|
A|-760-760-760-760-7676-640-640-540-540-5454-|
E|-760-760-760-760-7676-640-640-540-540-5454-|

e|----------------------------------------------| 
B|----------------------------------------------| 
G|----------------------------------------------| 
D|-0-0-6-0--0-6-0--0-6-0--0-6-0-0-0-6-0--0-6-0--| 
A|-0-0-6-0--0-6-0--0-6-0--0-6-0-0-0-6-0--0-6-0--| 
E|----------------------------------------------| 
         *      *      *              *      * 

Last Chorus
e|----------------------------------------------------|
B|----------------------------------------------------|
G|-7--5---------8~--10~~-----7--5---------8~--10~~----|
D|-7--5--2-2-2--8~--10~~-----7--5--2-2-2--8~--10~~----|
A|-5--3--2-2-2--6~---8~~-----5--3--2-2-2--6~---8~~----|
E|-5--3--0-0-0--6~---8~~-----5--3--0-0-0--6~---8~~----|

e|----------------------------------------------------|
B|----------------------------------------------------|
G|-7--5---------8~--10~~-----7--5---------8~--10~~----|
D|-7--5--2-2-2--8~--10~~-----7--5--2-2-2--8~--10~~----|
A|-5--3--2-2-2--6~---8~~-----5--3--2-2-2--6~---8~~----|
E|-5--3--0-0-0--6~---8~~-----5--3--0-0-0--6~---8~~----|

e|----------------------------------------------------|
B|----------------------------------------------------|
G|-7--5---------8~--10~~-----7--5---------8~--10~~----|
D|-7--5--2-2-2--8~--10~~-----7--5--2-2-2--8~--10~~----|
A|-5--3--2-2-2--6~---8~~-----5--3--2-2-2--6~---8~~----|
E|-5--3--0-0-0--6~---8~~-----5--3--0-0-0--6~---8~~----|

e|----------------------------------------------------|
B|----------------------------------------------------|
G|-7--5---------8~--10~~-----7--5---------8~--10~~----|
D|-7--5--2-2-2--8~--10~~-----7--5--2-2-2--8~--10~~----|
A|-5--3--2-2-2--6~---8~~-----5--3--2-2-2--6~---8~~----|
E|-5--3--0-0-0--6~---8~~-----5--3--0-0-0--6~---8~~----|

Outro
e|------------------------------------------------------------| 
B|------------------------------------------------------------| 
G|------------------------------------------------------------| 
D|-0-0-6-0--0-6-0--0-6-0--0-6-0-0-0-6-0--0-6-0--0-6-0--0-6----| 
A|-0-0-6-0--0-6-0--0-6-0--0-6-0-0-0-6-0--0-6-0--0-6-0--0-6----| 
E|-0-0-6-0--0-6-0--0-6-0--0-6-0-0-0-6-0--0-6-0--0-6-0--0-6----| 
         *      *      *              *      *      *    *   

e|------------------------------------------------------------| 
B|------------------------------------------------------------| 
G|------------------------------------------------------------| 
D|-0-0-6-0--0-6-0--0-6-0--0-6-0-0-0-6-0--0-6-0--0-6-0--0-6-0--| 
A|-0-0-6-0--0-6-0--0-6-0--0-6-0-0-0-6-0--0-6-0--0-6-0--0-6-0--| 
E|-0-0-6-0--0-6-0--0-6-0--0-6-0-0-0-6-0--0-6-0--0-6-0--0-6-0--| 
         *      *      *              *      *      *      *
Any comment, please e-mail me, and donīt forget to rate it. Be Cool!!!!!
YEAHHH!!

| /  slide up
| \  slide down
| h  hammer-on
| p  pull-off
| ~  vibrato
| +  harmonic
| x  Mute note
| *  Palm Mute
===========================================================================

Related for Thick Skin tab
Advertisement will be closed in 10 seconds