Song name
# A B C D E F G H I J K L M N O P Q R S T U V W X Y Z

Systematic - Crawlspace tab

Help us improve GuitareTab! Take a short survey!
Author/Artist: Systematic
Title: Crawlspace
Album: n/a
Transcribed by: Rob K
Tuning : Standard C Tuning

C |--0-----0------0-----0---0---0--|
G |--5-----5------5-----5---7---8--|
Eb|--------------------------------|
Bb|--------------------------------|
F |--------------------------------|
C |--------------------------------|

Verse
C |--0--|
G |--5--|
Eb|-----|
Bb|-----|
F |-----|
C |-----|

Chorus
C |-------------------------------------------------------------------|
G |-------------------------------------------------------------------|
Eb|-------------------------------------------------------------------|
Bb|---9---9---9---9-----10---10---10---10---------7---7-------7---7---|
F |-7---7---7---7-----8----8----8----8--------5-5---5---5-5-5---5---5-|
C |-------------------------------------------------------------------|

C |-----------------|
G |-----------------|
Eb|-----------------|
Bb|-------7-7-7-7-7-|
F |-2--3--5-5-5-5-5-|
C |-0--1------------|

C |-------------------------------------|------0-0-0-0-------0-0-0-0-----0-0-0-0--------0-0-0-0-||---0-0-0-0-0-0-0-|
G |-------------------------------------|-----5-5-5-5-------6-6-6-6-----4-4-4-4--------5-5-5-5--||--5-5-5-5-5-5-5--|
Eb|-------------------------------------|-------------------------------------------------------||-----------------|
Bb|-------------------------------------|-------------------------------------------------------||-----------------|
F |-------------------------------------|-------------------------------------------------------||-----------------|
C |-0-0----0-0----0-0--xxx/----0-0--0-0-|-0-0-----------0-0----------0-0----------0-0-----------||-----------------|


Outro:
gtr 1 keeps playing this
C |--0--|
G |--5--|
Eb|-----|
Bb|-----|
F |-----|
C |-----|

gtr2  keep strumming
C |--0-------0--------0-----|
G |--5-------8-------10-----|
Eb|-------------------------|
Bb|-------------------------|
F |-------------------------|
C |-------------------------|

gtr3 played last time(keep strumming)
C |-------------------------|
G |-------------------------|
Eb|--9------12-------14-----|
Bb|-------------------------|
F |--7------10-------12-----|
C |-------------------------|
Related for Crawlspace tab