Song name
# A B C D E F G H I J K L M N O P Q R S T U V W X Y Z

Szarruk - Cara Bonita tab

-------------------------------------------------------------------------
			     CARA BONITA - Szarruk
-------------------------------------------------------------------------
Tabbed by: Felipe Szarruk
Email: director@subterranica.com

Tuning: E

Really easy and nice song. It charts number 1 in some Latin countries.


E|------------------------------------|---------------------------------|
B|------------------------------------|----------------0----------------|
G|---------------0---------------0----|-----------0--------0------------|
D|---------5----------5------7------7-|-------9-----------------9-------|
A|---3-------------------5------------|---7--------------------------7--|
E|------------------------------------|---------------------------------|

E|------------------------------------|---------------------------------|
B|------------------------------------|----------------0----------------|
G|---------------0---------------0----|-----------0--------0------------|
D|---------5----------5------7------7-|-------9-----------------9-------|
A|---3-------------------5------------|---7--------------------------7--|
E|------------------------------------|---------------------------------|

E|------------------------------------|---------------------------------|
B|------------------------------------|----------------0----------------|
G|---------------0---------------0----|-----------0--------0------------|
D|---------5----------5------7------7-|-------9-----------------9-------|
A|---3-------------------5------------|---7--------------------------7--|
E|------------------------------------|---------------------------------|
                                          Ligato
E|------------------------------------|---------------------------------|
B|------------------------------------|---------------------------------|
G|---------------0---------------0----|---------------------------------|
D|---------5----------5------7------5-|--------------------------5------|
A|---3-------------------5----------5-|--------------------------5------|
E|----------------------------------3-|--------------------------3------|

E|------------------------------------|---------------------------------|
B|------------------------------------|---------------------------------|
G|-5---5---7---7----7-----9-----------|-----9-----9----9-----9---9------|
D|-5---5---7---7----7-----9-----------|-----9-----9----9-----9---9------|
A|-3---3---5---5----5-----7-----------|-----7-----7----7-----7---7------|
E|------------------------------------|---------------------------------|

E|------------------------------------|---------------------------------|
B|------------------------------------|---------------------------------|
G|-5---5---7---7----7-----9-----------|-----9-----9----9-----9---9------|
D|-5---5---7---7----7-----9-----------|-----9-----9----9-----9---9------|
A|-3---3---5---5----5-----7-----------|-----7-----7----7-----7---7------|
E|------------------------------------|---------------------------------|

E|------------------------------------|---------------------------------|
B|------------------------------------|---------------------------------|
G|-5---5---7---7----7-----9-----------|-----9-----9----9-----9---9------|
D|-5---5---7---7----7-----9-----------|-----9-----9----9-----9---9------|
A|-3---3---5---5----5-----7-----------|-----7-----7----7-----7---7------|
E|------------------------------------|---------------------------------|
                                    Ligato
E|------------------------------------|---------------------------------|
B|------------------------------------|---------------------------------|
G|-5---5---7---7----x-----------------|---------------------------------|
D|-5---5---7---7----x-----5-----------|--------------------------5------|
A|-3---3---5---5----x-----5-----------|--------------------------5------|
E|------------------------3-----------|--------------------------3------|

And it repeats!!!

************************************

| /   slide up
| \   slide down
| h   hammer-on
| p   pull-off
| ~   vibrato
| +   harmonic
| x   Mute note
| b   Bend
| pb  Pre-bend
| br  Bend release
| pbr Pre-bend release
| brb Bend release bend

************************************
Tap to rate this tab
 
# A B C D E F G H I J K L M N O P Q R S T U V W X Y Z