Song name
# A B C D E F G H I J K L M N O P Q R S T U V W X Y Z

T-ara - Day By Day tab

Tara - Day by Day

Intro
E---------------------------------------------------------------------------------------|
B-------------2----------------------------------------------2--------------------------|
G------1-2-4---4----4---2-4-2-1-------------------1-2-4---4----4---2-4-2-1--------------|
D----4-------------4---------------4-2-4---------4--------------4----------------4-2-4--|
A-4---------------------------------------------4---------------------------------------|
E---------------------------------------------------------------------------------------|

Rap
F#m, B, D, E, F#m x2

Verse 1+2
F#m, C#m, E, Bm
F#m, C#m, E, F#m
F#m, C#m, E, Bm
F#m, C#m, E, F#m

Chorus
F#m, B, D, E, F#m x4

Verse 3
F#m, C#m, E, Bm
F#m, C#m, E, F#m

Chorus
F#m, B, D, E, F#m x4

Bridge
F#m, E, C#, F#m, E, D, A, E, C#

End chorus
F#m, B, D, E, F#m x5

Finger picking:

Rap
E---------------------------------------------------------------------------------------|
B-------------2----------------------------------------------2--------------------------|
G------1-2-4---4----4---2-4-2-1-------------------1-2-4---4----4---2-4-2-1--------------|
D----4-------------4---------------4-2-4---------4--------------4----------------4-2-4--|
A-4---------------------------------------------4---------------------------------------|
E---------------------------------------------------------------------------------------|

Verse 1
E----2-----------------0-0------------------2---------0-----0-0--2-4--5-4-2--|
B--2--2----0-2-0-2--------2--3-2-0-----2--2---0-2--2-------------------------|
G----------------------------------------------------------------------------|
D----------------------------------------------------------------------------|
A----------------------------------------------------------------------------|
E----------------------------------------------------------------------------|

Verse 2
E----2-----------------0-0------------------2---------0-----0-0--2-4--5-4-2--|
B--2--2----0-2-0-2--------2--3-2-0-----2--2---0-2--2-------------------------|
G----------------------------------------------------------------------------|
D----------------------------------------------------------------------------|
A----------------------------------------------------------------------------|
E----------------------------------------------------------------------------|

Chorus
E-------2-4-5--7--9--7-9-7---7------7-------------------------2-4-5--7--9--7-9-7--7----|
B--2-2------------------------7----10---10-9-7--9--7----2-2------------------------7----|
G--------------------------------------------------9-----------------------------------|
D--------------------------------------------------------------------------------------|
A--------------------------------------------------------------------------------------|
E--------------------------------------------------------------------------------------|

E----7-------------------5--7-5-4-2-0---0-0-0-0-----0-0-0-2---5--7-5--4-2-0---0-0-0-0--2-4-5-4-2|
B-10--10-9-7--9--7-------------------------------2-2---------------------------------------------|
G--------------9---------------------------------------------------------------------------------|
D------------------------------------------------------------------------------------------------|
A------------------------------------------------------------------------------------------------|
E------------------------------------------------------------------------------------------------|

Verse 3
E----2-----------------0-0------------------2---------0-----0-0--2-4--5-4-2--|
B--2--2----0-2-0-2--------2--3-2-0-----2--2---0-2--2-------------------------|
G----------------------------------------------------------------------------|
D----------------------------------------------------------------------------|
A----------------------------------------------------------------------------|
E----------------------------------------------------------------------------|


Bridge
E--2-2--4-5--4-0------1-1--2--4-5-4--2--0--2----2-2--4-5-7-5-0---5-4---4-4-4-4-5-7-9|
B-------------------2----------------------------------------------------------------|
G------------------------------------------------------------------------------------|
D------------------------------------------------------------------------------------|
A------------------------------------------------------------------------------------|
E------------------------------------------------------------------------------------|

Rap
E---------------------------------------------------------------------------------------|
B-------------2----------------------------------------------2--------------------------|
G------1-2-4---4----4---2-4-2-1-------------------1-2-4---4----4---2-4-2-1--------------|
D----4-------------4---------------4-2-4---------4--------------4----------------4-2-4--|
A-4---------------------------------------------4---------------------------------------|
E---------------------------------------------------------------------------------------|

Chorus + End
E-------2-4-5--7--9--7-9-7---7------7-------------------------2-4-5--7--9--7-9-7--7----|
B--2-2------------------------7----10---10-9-7--9--7----2-2------------------------7----|
G--------------------------------------------------9-----------------------------------|
D--------------------------------------------------------------------------------------|
A--------------------------------------------------------------------------------------|
E--------------------------------------------------------------------------------------|

E----7---------------------------------------------------------------------|
B-10--10-9-7--9--7--------------------2------------------------------------|
G--------------9----------------1-2--4-----4----4----2--4-2-1--------------|
D-----------------------------4-----------------4-----------------4-2---4--|
A---------------------------4----------------------------------------------|
E--------------------------------------------------------------------------|
Tap to rate this tab
# A B C D E F G H I J K L M N O P Q R S T U V W X Y Z