Song name
# A B C D E F G H I J K L M N O P Q R S T U V W X Y Z

T-ara - Dont Leave tab

Title: Dont Leave
Artist: T-ara
Arranged: JooLee
Capo 5

e|-----0-1-----1---------1-0-------------------------------------------|
b|---3---3---3---------3---1---1-3-1-----1-3-----------------1---------|
g|-2-----2-2-----2-2-2-----2-2-----2---2---3---3---3-----0-2---2-----2-|
d|-------0-----------------2-------2-2-----3-3-3-3-3-3-3---2-------2---|
a|---------------------------------0-------1---1---1-------0-----0-----|
e|---------------------------------------------------------------------|

e|-----0-1----1---1---3-1-0-0-0-5-0-----0-----0-1-3-1-0------|
b|---3---3------3-3-------1-------1---1---3-------------3----|
g|-2-----2-2------2-------2-------2-2-----3-------0-----2----|
d|-------0--------0-0-----2-------2-------3-------2-----3----|
a|----------------------------------------1-3-----------1----|
e|-----------------------------------------------------------|
Tap to rate this tab
# A B C D E F G H I J K L M N O P Q R S T U V W X Y Z