Song name
# A B C D E F G H I J K L M N O P Q R S T U V W X Y Z

T-bone Burnett - Boomerang tab

Standard Tuning [ EADGBe ]

Song: Boomerang
Artist: Kjwan



INTRO::
e|--------------------------------------|
B|--------------------------------------|
G|--------------------------------------|
D|----2--------------2---42-42----2-----|
A|234---424-234--234---4--------4---42--|
E|-------------------------------------0|


VERSE::
e|-----|
B|-----|
G|-4-6-|
D|-4-6-|
A|-2-4-|
E|-----|


CHORUS::
e|--------------------------------------|
B|--------------------------------------|
G|--------------------------------------| *do 2x 
D|----2--------4242424542-------2-------| 
A|234---424-234-----------4-234---424234|
E|--------------------------------------|


INTERLUDE::
e|---|
B|---|
G|-4-|
D|---| ( with effects )
A|---|
E|---|


BRIDGE::
e|-------|
B|-------| repeat till end of bridge
G|-------| 
D|--8--6-|
A|-8--6--|
E|6--4---|
 pm.......



Structure::
intro
verse
chorus
interlude
verse
chorus
bridge
chorus
intro
interlude
Tap to rate this tab
# A B C D E F G H I J K L M N O P Q R S T U V W X Y Z