Song name
# A B C D E F G H I J K L M N O P Q R S T U V W X Y Z

T Bone Walker - Stormy Monday tab

These are the chords and the tab for Stormy Monday. You should get a feel for the chords 
they aren't played once but are rhythmic quarter notes.


/=slide


Major 7 Triad=

This is just an example, but find the root to see which Major 7 you are playing, this is
Fmaj.7, slide down one fret to make it Emaj.7

E--------|
B--3-----|
G--2-----|
D--3-----|
A--------|
E--------|


Intro:
  2           1          2         3           5      /     2
Fmaj.7    E maj. 7    F maj. 7  F# maj.7   G# maj. 7  /  F maj. 7

  D dim.
E------------|
B----------2-|
G-------3----|
D----4-------|
A--5---------|
E------------|

   Fmaj.7                         C9
E---------------------------------------5-------------3-|
B--------5-------3------------------------------------3-|
G----------------2----------------3/5-------5---------3-|
D--3/5 -----5----3------------------------------------2-|
A-----------------------------------------------------3-|
E-------------------------------------------------------|

   Fmaj.7                 G#6           Fmaj.7
E------------------------------------------------------|
B--------5-------3--------6-------------3--------------|
G----------------2--------5-------------2--------------|
D--3/5------5----3--------4-------------3--------------|
A------------------------------------------------------|
E-------------------------4----------------------------|

   C9                          C9
E--------5----------3-----------------5-------3--------|
B-------------------3-------------------------3--------|
G--3/5-------5------3----------3/5--------5---3--------|
D-------------------2-------------------------2--------|
A-------------------3-------------------------3--------|
E------------------------------------------------------|

 Fmaj.7             Am7       Bm7    A#m7     D9     Cm
E-------------------5---------7------6--------5------3-|
B-------5-------3---5---------7------6--------5------4-|
G---------------2---5---------7------6--------5------5-|
D-3/5-------5---3---5---------7------6--------4------5-|
A-------------------7---------9------8--------5------5-|
E-------------------5---------7------6-----------------|

E-------3---3------------------3----3------------------|
B-------3---3----5-----3-------3----3---5---3----------|
G----------------5-----3~4--------------5---3~4--------|
D------------------------------------------------------|
A---------------------------3--------------------------|
E---3--------------------------------------------------|

                           D dim.
E--------3-----------------3---------------------------|
B--------3-----------------3---------------------------|
G--------------------------3---------------------------|
D--------------------------4---------------------------|
A---------------2-3-4------5---------------------------|
E----3-------------------------------------------------|

This is pretty much the whole layout of the song right here. Any questions feel free to contact
me at Homestar27@hotmail.com
Tap to rate this tab
 
# A B C D E F G H I J K L M N O P Q R S T U V W X Y Z