Song name
# A B C D E F G H I J K L M N O P Q R S T U V W X Y Z

T-pain - Im In Love With A Stripper tab

standard tuning
main riff
e|-------------------|----------------|
b|-------------------|----------------|
g|-------------------|----------------|
d|----6/8------------|-----6/8--------|
a|4/6------8/10------|3/5-------8/10--|
e|--------------6/8--|----------------|

part during chorus
e|----10-8-6-10-8-6-10-8-6|----10-8-6-10-8--|
b|6-8---------------------|6-8--------------|
g|------------------------|-----------------|
d|------------------------|-----------------|
a|------------------------|-----------------|
e|------------------------|-----------------|
Tap to rate this tab
# A B C D E F G H I J K L M N O P Q R S T U V W X Y Z