Guitaretab - guitar tabs
Song name
# A B C D E F G H I J K L M N O P Q R S T U V W X Y Z

T-pain - In Love With A Stripper tab

T-Pain
in love with a stripper
Tuning (EADGBE)

Guitar 1
|-------------------------------|
|-------------------------------|
|-------------------------------|
|--------5/7--------------------|
|--3/5--------7/9-----3/5-------|
|-------------------------------|
                                  Do both lines through the whole song
|-------------------|
|-------------------|
|-------------------|
|-------5/7---------|
|--3/5-------7/9----|
|-------------------|

Chorus
|-------13-15--22-20-18--22-20-18--22-20-18---|
|---------------------------------------------|
|---------------------------------------------|
|---------------------------------------------|
|---------------------------------------------|
|---------------------------------------------|
[ Tab from: http://www.guitaretab.com/t/t-pain/73910.html ]
|-------13-15--22-20-18--20-18-16---|
|-----------------------------------|
|-----------------------------------|
|-----------------------------------|
|-----------------------------------|
|-----------------------------------|

|-------13-15--22-20-18--22-20-18--22-20-18---|
|---------------------------------------------|
|---------------------------------------------|
|---------------------------------------------|
|---------------------------------------------|
|---------------------------------------------|

|-------13-15--22-20-18--20-18----|
|---------------------------------|
|---------------------------------|
|---------------------------------|
|---------------------------------|
|---------------------------------|


100% correct i promise!
rate well and have fun!
Related for In Love With A Stripper tab
Advertisement will be closed in 10 seconds