Song name
# A B C D E F G H I J K L M N O P Q R S T U V W X Y Z

T Rex - Telegram Sam tab

----------------------------------------------------------------------------
			     Telegram Sam - T Rex
----------------------------------------------------------------------------
Tabbed by: cash from chaos
Email: bexter_paris@yahoo.co.uk

Tuning:EADGBE
Guitar 1:'(Fuzzy)
e|-------------------------------------------------------------|
B|-------------------------------------------------------------|
G|-------------------------------------------------------------|
D|------2---------2---4----x---2--------4------2---------------|
A|------0---------0---0----x---0----0---0------0---------------|
E|-------------------------------------------------------------|
Guitar 2:(Fuzzy)
e|-----5-----------------5-------------5-----------------------|
B|-----5-----------------5h7-----------5-----------------------|
G|-------------------------------------------------------------|
D|-------------------------------------------------------------|
A|-------------------------------------------------------------|
E|-------------------------------------------------------------|

| /  slide up
| \  slide down
| h  hammer-on
| p  pull-off
| ~  vibrato
| +  harmonic
| x  Mute note
============================================================================
Tap to rate this tab
# A B C D E F G H I J K L M N O P Q R S T U V W X Y Z