Guitaretab - guitar tabs
Song name
# A B C D E F G H I J K L M N O P Q R S T U V W X Y Z

T Rex - Ride A White Swan tab

OK, heres my first tab - if you find it useful, plz gimme a high rating :D

Intro
- sounds good finger picked

|---------------5-----------5-----------5------------------5-----------5-----------|
|---------------5----5 h 7--5----5 h 7--5----5 h 7---------5----5 h 7--5-----------|
|----------------------------------------------------------------------------------|
|----5 h 7------------------------------------------5 h 7--------------------------|
|----------------------------------------------------------------------------------|
|----------------------------------------------------------------------------------|


Verse x3
								
|------------5--5-----------5-----------5--5----------5--5----------5--------------|
|----5 h 7---5-------5 h 7-------5 h 7-----5--5 h 7--5--5--5 h 7--5--------------|
|----------------------------------------------------------------------------------|
|----------------------------------------------------------------------------------|
|----------------------------------------------------------------------------------|
|----------------------------------------------------------------------------------|

|------------5--5-----------5-----------5--5----------5--5----------5--------------|
|----5 h 7---5-------5 h 7-------5 h 7-----5--5 h 7--5--5--5 h 7--5--------------|
|----------------------------------------------------------------------------------|
|----------------------------------------------------------------------------------|
|----------------------------------------------------------------------------------|
|----------------------------------------------------------------------------------|
									 		
|-------------5-----------5-----------5--------------------5-----------5-----------|		
|-------------5----5 h 7--5----5 h 7--5----5 h 7-----------5----5 h 7--5-----------|
|----------------------------------------------------------------------------------|
|----5 h 7----------------------------------------5 h 7----------------------------|
|----------------------------------------------------------------------------------|
|----------------------------------------------------------------------------------|

Solo

|------------------------------------|---------------------------------------------|
|------------------------------------|-------------------------------8-------------|
|----7 bu 9----7 bu 9 r 7 p 5--------|----7 bu 9--7--5-----5-7 s 9-----9v---------|
|------------------------------7v----|------------------7--------------------------|
|------------------------------------|---------------------------------------------|
|------------------------------------|---------------------------------------------|




[ Tab from: http://www.guitaretab.com/t/t-rex/64034.html ]
|--------------------------------------8-------------------------------------------|
|-------------------------------8--10-----10--8------------------------------------|
|----7 bu 9--7--5-----5-7 s 9-------------------9--7--5---------------------------|
|------------------7--------------------------------------5------------------------|
|------------------------------------------------------------7---------------------|
|----------------------------------------------------------------------------------|

4th Verse

|-----------5-----------5-----------5------------------5-----------5---------------|
|-----------5----5 h 7--5----5 h 7--5----5 h 7---------5----5 h 7--5---------------|
|----------------------------------------------------------------------------------|
|----5 h 7--------------------------------------5 h 7------------------------------|
|----------------------------------------------------------------------------------|
|----------------------------------------------------------------------------------|

|-----------5--5-----------5------------5--5-----------5--5-----------5------------|
|----5 h 7--5-------5 h 7-------5 h 7---5------5 h 7--5--5---5 h 7--5------------|
|----------------------------------------------------------------------------------|
|----------------------------------------------------------------------------------|
|----------------------------------------------------------------------------------|
|----------------------------------------------------------------------------------|

|-----------5--5-----------5------------5--5-----------5--5-----------5------------|
|----5 h 7--5-------5 h 7-------5 h 7---5------5 h 7--5--5---5 h 7--5------------|
|----------------------------------------------------------------------------------|
|----------------------------------------------------------------------------------|
|----------------------------------------------------------------------------------|
|----------------------------------------------------------------------------------|


Outro

|-------------5-----------5-----------5------------------5-----------5-------------|
|-------------5----5 h 7--5----5 h 7--5----5 h 7---------5----5 h 7--5-------------|
|----------------------------------------------------------------------------------|
|----5 h 7----------------------------------------5 h 7----------------------------|
|----------------------------------------------------------------------------------|
|----------------------------------------------------------------------------------|

Repeat Till Fade out, second guitar playing this riff from the 4th repetition

|----------------------------------------------------------------------------------|
|----------------------------------------------------------------------------------|
|----7 bu 9 r 7--5-----------------------------------------------------------------|
|---------------------7------------------------------------------------------------|
|----------------------------------------------------------------------------------|
|----------------------------------------------------------------------------------|

Hope you like it!
Related for Ride A White Swan tab