Guitaretab - guitar tabs
Song name
# A B C D E F G H I J K L M N O P Q R S T U V W X Y Z

T Rex - Thunderwing tab

-------------------------------------------------------------------------------
			     Thunderwing Ė T. Rex
-------------------------------------------------------------------------------
Tabbed by: Kevin Seibert
Email: transam_y88@yahoo.com

This is an awesome song just power chords and a little riff. Itís just fun to play and 
even if itís easy as hell.

Tuning: Normal

Riff x 4
e|--------------------------------|
B|--------------------------------|
G|--------------------------------|
D|------------7-------------------|
A|------7---9-- 9-7-9-7-9---------|
E|---5----------------------------|

Verse
e|-----------------------------------------|
B|-----------------------------------------|
G|-----------------------------------------|
D|--7-----7-----7------7-------------------|
A|--7-----7-----7------7-------------------|
E|--5-----5-----5------5-------------------|
   I was walking down the skyway my way

Riff x 1
[ Tab from: http://www.guitaretab.com/t/t-rex/73580.html ]
e|-----------------------------------------|
B|-----------------------------------------|
G|-----------------------------------------|
D|--7-----7-----5----5---------------------|
A|--7-----7-----5----5---------------------|
E|--5-----5-----3----3---------------------|
   When I saw the legs I that love

Riff x 1

e|-----------------------------------------|
B|-----------------------------------------|
G|-----------------------------------------|
D|--7-----7-----7-----7--------------------|
A|--7-----7-----7-----7--------------------|
E|--5-----5-----5-----5--------------------|
   I was thinking bout drinking something

Riff x 1

e|-----------------------------------------|
B|-----------------------------------------|
G|-----------------------------------------|
D|-5----5----7---7-------------------------|
A|-5----5----7---7-------------------------|
E|-3----3----5---5-------------------------|
 When I saw the legs I that love

Riff x 2
Verse


Chorus
e|---------------------------------------------|
B|---------------------------------------------|
G|---7-----------------------------------------|
D|---7---------------5----4---2----------------|
A|---5---------------5----4---2----------------|
E|-------------------3----2---0----------------|
     Do your thing   Love on Thunderwing
Related for Thunderwing tab