Song name
# A B C D E F G H I J K L M N O P Q R S T U V W X Y Z

T Rex - Preluge tab

Thie may sound a bit out of tune as Prelude is a speeded up instrumental

e--------------------------------------------|
b--------------------------------------------|
g------------2--------------------2----------|
d--0-2-4-2-4--4-2-4-4---0-2-4-2-4--4-2-4-4---|
a--------------------------------------------|
E--------------------------------------------|

e---------------------------------------------|
b---------------------------------------------|
g---------------------------------2-4-2-------|
d-----------------------------2-4-------4-2-4-|
a--0-2-4-4-4-2-4-4-4-4--0-2-4-----------------|
E---------------------------------------------|

Repeat Once

e-------------------------------------------|
b-------------------------------------------|
g---------2---------------2-----------------|
d-----2-4---4-2-------2-4---4-2-------------|
a-2-4-----------4--2-4-----------4----------|
E-------------------------------------------|

e-------------------------------------------|
b-------------------------------------------|
g-------------------------------------------|
d---------4----------------4----------------|
a-----4-6---6-4--------4-6---6-4---6-4---6--|
E-4-6-----------6--4-6-----------6-----6----|
Tap to rate this tab
 
# A B C D E F G H I J K L M N O P Q R S T U V W X Y Z