Song name
# A B C D E F G H I J K L M N O P Q R S T U V W X Y Z

T Rex - Buick Mackane tab

Tabbed by: Belavista Man
On: 27/08/07
E-mail: anthonybentley@hotmail.co.uk

Intro (played through the bulk of the song):
e|------------------------------------------------|
B|------------------------------------------------|
G|------------------------------------------------|
D|----------------------5-------------5-----------|
A|-5h-7--5h-7--5h-7-5-7---7--5h-7-5-7---7-5-------|
E|------------------------------------------7-5-5-|

Play that repeatedly (with little differences here and there - not too hard to spot) 
(roughly) the 2 minute mark. Then play:

e|-----------------------|
B|-----------------------|
G|-----------------------|
D|---5-----------5-------|
A|-7---7-5---7-7---7-5---|
E|---------7-----------7-|

Play THAT repeatedly.
At 2:38 play this solo:

e|----------------17-17-17br-17-15-----------------------------|
B|-17-17-17-15---------------------17-17-17-15-17-17-15-17-15~-|
G|-------------16----------------------------------------------|
D|-------------------------------------------------------------|
A|-------------------------------------------------------------|
E|-------------------------------------------------------------|

e|--------------------15-17-17br-15----------21b-21b-21b-21br-17-15-------|
B|-15-b17r-15~-15h-17---------------17-15-17------------------------17-15-|
G|------------------------------------------------------------------------|
D|------------------------------------------------------------------------|
A|------------------------------------------------------------------------|
E|------------------------------------------------------------------------|

The rest of the solo is best improvised because it's difficult to hear it on the 
If you can work it out then submit it to UG. I sure would like to have a look at it :)
Tap to rate this tab
 
# A B C D E F G H I J K L M N O P Q R S T U V W X Y Z