Song name
# A B C D E F G H I J K L M N O P Q R S T U V W X Y Z

T2 - In Circles chords

Highlighted       Show chord diagrams
Artist:     T2
Song:       In Circles
Album:      It'll All Work Out In Boomland
Tabbed by:  Wiktor Kołowiecki
E-mail:     victoriumist@gmail.com
------------------------------------------

NOTE: The intro chords you can find at the
bottom of the tab. If you know the song,
you'll know how to play it. I couldn't
figure out this few words from the first 
verse. If you have ideas what he sings,
please mail me or comment.

------------------------------------------

Intro:

Dsus2           Fsus2 Esus2
Dsus2           Csus2 Bsus2
Fsus2                 Esus2
Csus2                 Bsus2
Dsus2           Fsus2 Esus2
Dsus2           Csus2 Bsus2

Em Em7

Riff:
E|---------|
B|---------|
G|---------|
D|---7-5---|
A|---------| 
E|-5-------|

Verse:

Riff
I'm going back, going back to the time 
where I was bit ???? 
Moving in circles believing in memories 
all time's ???????
F         G            F           G              Am
Moving in circles, you never quite know where you are 
Am
aaa... aaa... aaa...

Riff
Living the future while living the past 
it will tell just the same
Living the present is all you can do 
if you want tuesday safe (?)
F         G            F           G              Am
Moving in circles, you never quite know where you are 
Am
aaa... aaa... aaa...

Solo: in Am

Intro again:

Dsus2           Fsus2 Esus2
Dsus2           Csus2 Bsus2
Fsus2                 Esus2
Csus2                 Bsus2
Dsus2           Fsus2 Esus2
Dsus2           Csus2 Bsus2

Riff
I'm going back, going back to the time 
where I was bit ???? 
Moving in circles believing in memories 
all time's ???????
F         G            F           G              Am
Moving in circles, you never quite know where you are 
Am
aaa... aaa... aaa...
Am
a... aaa... aaa... aaa...

Solo: in Am

Outro:

A Bb 
A Bb C D F D# D Am

Am

A  Am

----------------------------------------------------
Chords:

  Dsus2  Fsus2  Esus2  Csus2  Bsus2
E|--5------8------7------3------2-----|
B|--5------8------7------3------2-----|
G|--7------10-----9------5------4-----|
D|--7------10-----9------5------4-----|
A|--5------8------7------3------2-----| 
E|--x------x------x------x------x-----|

----------------------------------------------------

02.08.2011
Garwolin, Poland
Tap to rate this tab
# A B C D E F G H I J K L M N O P Q R S T U V W X Y Z