Song name
# A B C D E F G H I J K L M N O P Q R S T U V W X Y Z

Tad Morose - Anubis tab

Tuning: E,B,G,D,A,D

M =Muted

E|-------------------------------------------------------------------|
B|-------------------------------------------------------------------|
G|-------------------------------------------------------------------|
D|-------------------------------------------------------------------|
A|---0000-00-00------0000-00-00------0000-00-00------0000-00-00------|
D|---0000-00-00------0000-00-00------0000-00-00------0000-00-00------|
     MMMM MM MM      MMMM MM MM      MMMM MM MM      MMMM MM MM  

E|----------------------------------------------------------------------|
B|----------------------------------------------------------------------|
G|----------------------------------------------------------------------|
D|-----------------------------5----------------------------------------|
A|----------5/6--5/6--------5/6-86\535/6---------5/6--5/6---------3-3-6-|
D|--0-00-00----00---000-00-0-------------0-00-00----00---000-00-005-5-8-|

E|-----------------------------------------------------------------------|
B|-----------------------------------------------------------------------|
G|-----------------------------------------------------------------------|
D|-----------------------------5----4/5/7--------------------------------|
A|----------5/6--5/6--------5/6-86\5--------------5/6--5/6---------3-3-6-|
D|--0-00-00----00---000-00-0--------------0-00-00----00---000-00-005-5-8-|


                                 ENJOY!
Tap to rate this tab
 
# A B C D E F G H I J K L M N O P Q R S T U V W X Y Z